Cifra Club

Aprenda

Comida

Titãs

Tab de baixo: Completa
Intro:

G|-----------------------------------------------------------------------
D|---------------------------7-777----5-555------------------------------
A|----7-777-----7-777----------------------------------------------------
E|-0---------0---------5-------------------------------------------------
 
(Pt 1)
G|-----------------9-------------------------------------------------------
D|-----------------------------------------------7-777--------------5-555--
A|-----5-7---7-777---------5-7----7-777-----------------------4-5----------
E|-0-7-----0-----------0-7-----0----------5-3-5---------4h5 55-------------

(Pt 2)
G|----------------------------------------------
D|----------------------------------------------
A|---------------------------6-6-8--------------
E|-1---1-1-----1---1-1----8---------------------

Sequência: 

Versos -> Pt-1
Solo -> Pt 2
Composição de Arnaldo Antunes / Marcelo Fromer / Sérgio Britto
Colaboração e revisão:
  • Gabriel Augusto
323 exibições

0 comentários

Ver todos os comentários
00:00 / 00:00
Outros vídeos desta música
Repetir Qualidade Automático
Outros vídeos desta música
00:00 / 00:00
Automático

Cifra Club Pro

Aproveite o Cifra Club com benefícios exclusivos e sem anúncios
Cifra Club Pro
Aproveite o Cifra Club com benefícios exclusivos e sem anúncios
OK