Cifra Club

Wave

Tom Jobim

Tab de baixo: Simplificada
Intro:

G|-----7-------7-----7-------7-----------------------
D|---7---7---7-----7---7---7-------------------------  (2x)
A|-5-------5-----5-------5---------------------------
E|---------------------------------------------------

Primeira parte:

(Primeira estrofe)
G|---------------------------------------------------
D|-----------8---------------------------------------
A|-5-5---7-7-------7-5-5-------5-----5-----4-2-2-----
E|-----5-------5-5-------5-3-3---3-3---2-2-------2---

G|---------------------------------------------------
D|---------------------------------------------------
A|-----2-1-1-0---------------------------------------
E|-0-0-----------------------------------------------

G|-----7-------7-------------------------------------
D|---7---7---7---------------------------------------
A|-5-------5-----------------------------------------
E|---------------------------------------------------

Vou te contar
Os olhos já não podem ver
Coisas que só o coração pode entender
Fundamental é mesmo o amor
É impossível ser feliz sozinho...

Segunda estrofe:
G|---------------------------------------------------
D|-----------8-7-7-----------------------------------
A|-5-5---7-7-------7-5-5-------5-----5-----4-2-2-----
E|-----5-----------------5-3-3---3-3---2-2-------2---

G|---------------------------------------------------
D|---------------------------------------------------
A|-----2-1-1-0---------------------------------------
E|-0-0-----------------------------------------------

G|-----7-------7-------------------------------------
D|---7---7---7---------------------------------------
A|-5-------5-----------------------------------------
E|---------------------------------------------------

(...)
O resto é mar
É tudo que não sei contar
São coisas lindas que eu tenho pra te dar
Vem de mansinho à brisa e me diz
É impossível ser feliz sozinho...

Segunda parte:
G|---------------------------------------------------
D|-----5-----8-----7-------7-------------------------
A|---------------7---7---7---------------------------
E|-3-3---6-6---5-------5-----------------------------

G|---------------------------------------------------
D|-----3-----6---------------------------------------
A|-----------------5-----8---------------------------
E|-1-1---4-4---5-5---5-5-----------------------------

(...)
Da primeira vez era a cidade
Da segunda o cais e a eternidade...

Primeira parte:
(Terceira estrofe)
G|---------------------------------------------------
D|-----------8---------------------------------------
A|-5-5---7-7-------7-5-5-------5-----5-----4-2-2-----
E|-----5-------5-5-------5-3-3---3-3---2-2-------2---

G|---------------------------------------------------
D|---------------------------------------------------
A|-----2-1-1-0---------------------------------------
E|-0-0-----------------------------------------------

G|-----7-------7-------------------------------------
D|---7---7---7---------------------------------------
A|-5-------5-----------------------------------------
E|---------------------------------------------------

(...)
Agora eu já sei
Da onda que se ergueu no mar
E das estrelas que esquecemos de contar
O amor se deixa surpreender
Enquanto a noite vem nos envolver...

Final:
G|-----7-------7-----7-------7-----------------------
D|---7---7---7-----7---7---7-------------------------
A|-5-------5-----5-------5---------------------------
E|---------------------------------------------------

G|-----7-------7-----7-------------------------------
D|---7---7---7-----7---------------------------------
A|-5-------5-----5-----5-8/9-------------------------
E|---------------------------------------------------

(...)
Vou te contar...
exibições 1.642
Composição: Tom Jobim Colaboração e revisão:
  • Filipe Marks

0 comentários

mostrar mais comentários
00:00 / 00:00
outros vídeos desta música
repetir qualidade Automático
Outros vídeos desta música
00:00 / 00:00
Automático
Capítulos
  • Início
  • Tocando a música
  • Tocando Introdução
  • Ensinando Introdução
  • Tocando Primeira Parte
  • Ensinando Primeira Parte (Primeira Estrofe)
  • Ensinando Primeira Parte (Segunda Estrofe)
  • Tocando Segunda Parte
  • Ensinando Segunda Parte
  • Tocando Final
  • Ensinando Final
  • Encerramento
OK