Cifra Club

Wave

Tom Jobim

Tab de baixo: Principal
Intro:

G|-----7-------7-----7-------7-----------------------
D|-0-7---7-0-7---0-7---7-0-7-------------------------
A|-----------------------------0---------------------
E|---------------------------------------------------

G|-----7-------7-----7-------------------------------
D|-0-7---7-0-7---0-7---7-0-4-------------------------
A|---------------------------0-----------------------
E|---------------------------------------------------

Primeira parte:

(Primeira estrofe)
G|---------------------------------------------------
D|-0-0-7-7-8-----------7---0-x-4-0-5-5---x---0-------
A|-----------7---7-0-7---0-----------------1---------
E|-------------6-----------------------3-------3-----

G|-----------1-------------7-------7-----------------
D|-------1-2-----3-2---0-7---7-0-7-------------------
A|---4-2-------1-----0-------------------------------
E|-2-------------------------------------------------

Vou te contar
Os olhos já não podem ver
Coisas que só o coração pode entender
Fundamental é mesmo o amor
É impossível ser feliz sozinho...

(Segunda estrofe)
G|------------------------------------4---3----------
D|-0-0-7-------8---7-----------4\-0------------------
A|-------0---7---7---7-0-3/5-5-----------------------
E|---------6------------------------3---3---3-3------

G|-----------------------------7-------7-------------
D|---x-0-x-----------------0-7---7-0-7---------------
A|---------4-x-2-x---2-1-0---------------------------
E|-2---------------0---------------------------------

(...)
O resto é mar
É tudo que não sei contar
São coisas lindas que eu tenho pra te dar
Vem de mansinho à brisa e me diz
É impossível ser feliz sozinho...

Segunda parte:

G|---------------------------------------------------
D|-----------------------10-7-x----------------------
A|-------------------x-7--------7-x------------------
E|-3-x-3-x-6-x-6-x-5---------------------------------

G|---------------------------------------------------
D|---x-3-1-------------------------------------------
A|---------3-------------x-7-4---0-4-----------------
E|-1---------4-x-4/5-x-5-------3---------------------

(...)
Da primeira vez era a cidade
Da segunda o cais e a eternidade...

Primeira parte:

(Terceira estrofe)
G|-------------------0-----7-------8-7-8-------------
D|-0-7---------0-------7-8-----8---------9-----------
A|-------7-0-7---------------8---9---------9---------
E|-----6---------2-3-------------------------7-8-----

G|-------------------7-------7-----------------------
D|---------3/7-7-0-7---7-0-7-------------------------
A|-7-x---1-------------------------------------------
E|-----0---------------------------------------------

(...)
Agora eu já sei
Da onda que se ergueu no mar
E das estrelas que esquecemos de contar
O amor se deixa surpreender
Enquanto a noite vem nos envolver...

Final:

G|-----7-------7-----7-------7-----------------------
D|-0-7---7-0-7---0-7---7-0-7-------------------------
A|-----------------------------0---------------------
E|---------------------------------------------------

G|-----7-------7-----7-10-------/11~~~~--------------
D|-0-7---7-0-7---0-7------------0--------------------
A|---------------------------------------------------
E|---------------------------------------------------
exibições 20.741
Composição: Tom Jobim Colaboração e revisão:
  • Filipe Marks

0 comentários

mostrar mais comentários
00:00 / 00:00
outros vídeos desta música
repetir qualidade Automático
Outros vídeos desta música
00:00 / 00:00
Automático
Capítulos
  • Início
  • Ensinando Segunda Parte
  • Tocando a música
  • Tocando Introdução
  • Ensinando Introdução
  • Tocando Primeira Parte (Primeira Estrofe)
  • Ensinando Primeira Parte (Primeira Estrofe)
  • Tocando Primeira Parte (Segunda Estrofe)
  • Ensinando Primeira Parte (Segunda Estrofe)
  • Tocando Primeira Parte (Terceira Estrofe)
  • Ensinando Primeira Parte (Terceira Estrofe)
  • Tocando Segunda Parte
  • Tocando Final
  • Ensinando Final
  • Encerramento
OK