Cifra Club

Garota de Ipanema

Tom Jobim

Cifra: Principal (violão e guitarra)
Tom: F
[Primeira Parte]

[Ritmo Padrão]

   F7M
E|------------------------------------------|
B|---1----1---1----1-----1---1--------------|
G|---2----2---2----2-----2---2--------------|
D|---2----2---2----2-----2---2--------------|
A|------------------------------------------|
E|-1----1-------1------1--------------------|

F7M                                       G7(13)
Olha que coisa mais linda mais cheia de graça
                            Gm7
É ela menina que vem e que passa
            C7(9-)             Am7(11)   
Num doce balanço a caminho do mar

( Ab7(11+)  Gm7(11)  Gb7(11+) )

[Passagem]

  Am7(11)  Ab7(11+)    Gm7(11)  Gb7(11+)
E|------------------------------------------|
B|-----3-------3---3-------1-------1---1----|
G|-----3-------5---5-------3-------3---3----|
D|-----5-------4---4-------3-------2---2----|
A|-0----------------------------------------|
E|---------4-----------3-------2------------|

 F7M                                G7(13)
Moça do corpo dourado do sol de lpanema
                                Gm7
O seu balançado é mais que um poema
                C7(9-)                F7M
É a coisa mais linda que eu já vi passar

[Segunda Parte]

   F#7M
E|------------------------------------------|
B|---2----2---2----2---2---2----------------|
G|---3----3---3----3---3---3----------------|
D|---3----3---3----3---3---3----------------|
A|------------------------------------------|
E|-2----2--------2---2----------------------|

   B7(9)
E|------------------------------------------|
B|---2----2---2----2----2---2---------------|
G|---2----2---2----2----2---2---------------|
D|---1----1---1----1----1---1---------------|
A|-2----2--------2----2---------------------|
E|------------------------------------------|

   F#m7
E|------------------------------------------|
B|---2----2---2----2----2---2---------------|
G|---2----2---2----2----2---2---------------|
D|---2----2---2----2----2---2---------------|
A|------------------------------------------|
E|-2----2--------2----2---------------------|

   D7(9)
E|------------------------------------------|
B|---5----5---5----5----5---5---------------|
G|---5----5---5----5----5---5---------------|
D|---4----4---4----4----4---4---------------|
A|-5----5--------5----5---------------------|
E|------------------------------------------|

   Gm7
E|------------------------------------------|
B|---3----3---3----3----3---3---------------|
G|---3----3---3----3----3---3---------------|
D|---3----3---3----3----3---3---------------|
A|------------------------------------------|
E|-3----3--------3----3---------------------|

   Eb7(9)
E|------------------------------------------|
B|---6----6---6----6----6---6---------------|
G|---6----6---6----6----6---6---------------|
D|---5----5---5----5----5---5---------------|
A|-6----6--------6----6---------------------|
E|------------------------------------------|

   Am7           D7(9-)
E|------------------------------------------|
B|---5----5---5----4----4---4---------------|
G|---5----5---5----5----5---5---------------|
D|---5----5---5----4----4---4---------------|
A|-0----0--------5----5---------------------|
E|------------------------------------------|

   Gm7           C7(9-)
E|------------------------------------------|
B|---3----3---3----2----2---2---------------|
G|---3----3---3----3----3---3---------------|
D|---3----3---3----2----2---2---------------|
A|---------------3----3---------------------|
E|-3----3-----------------------------------|

F#7M                     B7(9)
Ah, por que estou tão sozinho?
F#m7                         D7(9)
    Ah, por que tudo é tão triste?
Gm7                    Eb7(9)
    Ah, a beleza que existe
     Am7               D7(9-)
A beleza que não é só minha
 Gm7                C7(9-)
Que também passa sozinha

[Primeira Parte]

F7M                                 G7(13)
Ah, se ela soubesse que quando ela passa
                               Gm7
O mundo sorrindo se enche de graça
             C7(9-)              F7M
E fica mais lindo por causa do amor

[Final]

C7(9-)            F7M
   Por causa do amor
C7(9-)            F7M
   Por causa do amor

   C7(9-)    F7M       C7(9-)    F7M
E|------------------------------------------|
B|---2---2-2---1---1-1---2---2-2---1---1-1--|
G|---3---3-3---2---2-2---3---3-3---2---2-2--|
D|---2---2-2---2---2-2---2---2-2---2---2-2--|
A|-3---3---------------3---3----------------|
E|-----------1---1---------------1---1------|
exibições 743.132
Acordes para:

    0 comentários

    mostrar mais comentários

    Conseguiu tocar?

    170 tocaram 14 ainda não

    Grave um vídeo tocando Garota de Ipanema e mande pra gente!

    00:00 / 00:00
    outros vídeos desta música
    repetir qualidade Automático
    Outros vídeos desta música
    00:00 / 00:00
    Automático
    Capítulos
    • Início
    • Acordes da primeira parte
    • Tocando a primeira parte
    • Ensinando rítmo da música
    • Acordes da passagem da primeira parte
    • Tocando a passagem da primeira parte
    • Ensinando o rítmo da passagem
    • Acordes da segunda parte
    • Tocando a segunda parte
    • Ensinando rítmo da segunda parte (parte 1)
    • Ensinando rítmo da segunda parte (parte 2)
    • Tocando o final da música
    • Dicas de rítmo
    • Encerramento
    OK