Cifra Club

Super Natural

Turnover

Cifra: Principal (violão e guitarra)
Selo Cifra Club: esta cifra foi revisada para atender aos critérios oficiais da nossa Equipe de Qualidade.
tom: C
   Guitar 1 (x4)
E|-------0-------------0-------|-------0-------------0--------|
B|-----1----1---1----1----1----|-----3----3---3----3----3-----|
G|--2---------2---2---------2--|--4---------4---4---------4---|
D|--3---------3---3---------3--|--5---------5---5---------5---|
A|-----------------------------|------------------------------|
E|-----------------------------|------------------------------|

   Guitar 2 (x3)                      (End 1 & 2)     (End 3)
E|----------------------------------|-------------|-------------|
B|----------------------------------|-------------|----------8--|
G|--7h9-7\5------5/7--7/9-7--5/4-4--|--4/5--4-----|--7p5-7/9----|
D|-----------7----------------------|----------7--|-------------|
A|----------------------------------|-------------|-------------|
E|----------------------------------|-------------|-------------|

[Verse]

   Guitar 1 (x4)
E|-------0-------------0-------|-------0-------------0--------|
B|-----1----1---1----1----1----|-----3----3---3----3----3-----|
G|--2---------2---2---------2--|--4---------4---4---------4---|
D|--3---------3---3---------3--|--5---------5---5---------5---|
A|-----------------------------|------------------------------|
E|-----------------------------|------------------------------|

   Guitar 2 (After Guitar 1 plays twice)
E|-------|-------------------------|-------------------------|
B|-------|-------------------------|-------------------------|
G|--0h2--|--5----7--5--2p0----0h2--|--5----7--5--2p0----0h2--|
D|-------|-------------------------|-------------------------|
A|-------|-------------------------|-------------------------|
E|-------|-------------------------|-------------------------|

   Guitar 3 (After Guitar 1 plays twice)
E|--3/5--|--8----10--8--5/3----3/5--|--8----10--8--5/3----3/5--|
B|-------|--------------------------|--------------------------|
G|-------|--------------------------|--------------------------|
D|-------|--------------------------|--------------------------|
A|-------|--------------------------|--------------------------|
E|-------|--------------------------|--------------------------|

[Chorus]

   Guitar 1 (x2)
E|--0~--0-0~--0--|--0~--0-0~--0--|--0~--0-0~--0--|--0~--0-0~--0-0--|
B|--1~--1-1~--1--|--1~--1-1~--1--|--1~--1-1~--1--|--1~--1-1~--1-1--|
G|--2~--2-0~--0--|--2~--2-0~--0--|--2~--2-0~--0--|--2~--2-0~--0-0--|
D|--3~--3-2~--2--|--3~--3-2~--2--|--3~--3-2~--2--|--3~--3-2~--2-2--|
A|---------------|---------------|---------------|-----------------|
E|---------------|---------------|---------------|-----------------|

   Guitar 2 (x2)
E|--------8---------8--------|--------8---------8--------|--------8---------8--------|--------8---------8--|
B|---8-10------8-10---10-8---|---8-10------8-10---10-8---|---8-10------8-10---10-8---|---8-10------8-10----|
G|-9---------9-------------9-|-9---------9-------------9-|-9---------9-------------9-|-9---------9---------|
D|---------------------------|---------------------------|---------------------------|---------------------|
A|---------------------------|---------------------------|---------------------------|---------------------|
E|---------------------------|---------------------------|---------------------------|---------------------|

[Post Chorus]

   Guitar 1 (x2)
E|-------0-------------0-------|-------0-------------0--------|
B|-----1----1---1----1----1----|-----3----3---3----3----3-----|
G|--2---------2---2---------2--|--4---------4---4---------4---|
D|--3---------3---3---------3--|--5---------5---5---------5---|
A|-----------------------------|------------------------------|
E|-----------------------------|------------------------------|

   Guitar 2 (x2)                        (End 1)        (End 2)
E|----------------------------------|-------------|-------------|
B|----------------------------------|-------------|----------8--|
G|--7h9-7\5------5/7--7/9-7--5/4-4--|--4/5--4-----|--7p5-7/9----|
D|-----------7----------------------|----------7--|-------------|
A|----------------------------------|-------------|-------------|
E|----------------------------------|-------------|-------------|

[Verse]

   Guitar 1 (x2)
E|-------0-------------0-------|-------0-------------0--------|
B|-----1----1---1----1----1----|-----3----3---3----3----3-----|
G|--2---------2---2---------2--|--4---------4---4---------4---|
D|--3---------3---3---------3--|--5---------5---5---------5---|
A|-----------------------------|------------------------------|
E|-----------------------------|------------------------------|

   Guitar 2
E|-------------------------|-------------------------|
B|-------------------------|-------------------------|
G|--5----7--5--2p0----0h2--|--5----7--5--2p0----0h2--|
D|-------------------------|-------------------------|
A|-------------------------|-------------------------|
E|-------------------------|-------------------------|

   Guitar 3
E|--8----10--8--5/3----3/5--|--8----10--8--5/3----3/5--|
B|--------------------------|--------------------------|
G|--------------------------|--------------------------|
D|--------------------------|--------------------------|
A|--------------------------|--------------------------|
E|--------------------------|--------------------------|

[Chorus]

   Guitar 1 (x2)                                       (End 1)             (End 2)
E|--0~--0-0~--0--|--0~--0-0~--0--|--0~--0-0~--0--|--0~--0-0~--0-0--|--0~--0-0~--0-0-0-0~--|
B|--1~--1-1~--1--|--1~--1-1~--1--|--1~--1-1~--1--|--1~--1-1~--1-1--|--1~--1-1~--1-1-1-1~--|
G|--2~--2-0~--0--|--2~--2-0~--0--|--2~--2-0~--0--|--2~--2-0~--0-0--|--2~--2-0~--0-0-0-0~--|
D|--3~--3-2~--2--|--3~--3-2~--2--|--3~--3-2~--2--|--3~--3-2~--2-2--|--3~--3-2~--2-2-2-2~--|
A|---------------|---------------|---------------|-----------------|----------------------|
E|---------------|---------------|---------------|-----------------|----------------------|

   Guitar 2 (x2)
E|--------8---------8--------|--------8---------8--------|--------8---------8--------|--------8---------8--|
B|---8-10------8-10---10-8---|---8-10------8-10---10-8---|---8-10------8-10---10-8---|---8-10------8-10----|
G|-9---------9-------------9-|-9---------9-------------9-|-9---------9-------------9-|-9---------9---------|
D|---------------------------|---------------------------|---------------------------|---------------------|
A|---------------------------|---------------------------|---------------------------|---------------------|
E|---------------------------|---------------------------|---------------------------|---------------------|

[Pre-Bridge]

   Guitar 2
E|---------8---------8---------|
B|----8-10------8-10---10-8----|
G|--9---------9-------------9--|
D|-----------------------------|
A|-----------------------------|
E|-----------------------------|

[Bridge]

   Guitar 1 (x2)
E|---0~---0~---0~---0~--|---0~---0~---0~-------|
B|---1~---0~---1~---1~--|---1~---0~---1~---3~--|
G|---0~---0~---3~---2~--|---0~---0~---3~---2~--|
D|---2~---2~---3~---3~--|---2~---2~---3~---3~--|
A|----------------------|----------------------|
E|----------------------|----------------------|

   Guitar 2 (x8)       (End 1-7)           (End 8)
E|----------8---|----------8----------|----------8---|
B|-----8-10-----|-----8-10---10-8-----|-----8-10-----|
G|---9----------|---9-------------9---|---9----------|
D|--------------|---------------------|--------------|
A|--------------|---------------------|--------------|
E|--------------|---------------------|--------------|

[Chorus]

   Guitar 1 (x2)
E|--0~--0-0~--0--|--0~--0-0~--0--|--0~--0-0~--0--|--0~--0-0~--0-0--|
B|--1~--1-1~--1--|--1~--1-1~--1--|--1~--1-1~--1--|--1~--1-1~--1-1--|
G|--2~--2-0~--0--|--2~--2-0~--0--|--2~--2-0~--0--|--2~--2-0~--0-0--|
D|--3~--3-2~--2--|--3~--3-2~--2--|--3~--3-2~--2--|--3~--3-2~--2-2--|
A|---------------|---------------|---------------|-----------------|
E|---------------|---------------|---------------|-----------------|

   Guitar 2
E|---------------------------|------------------8--------|--------8---------8--------|--------8---------8--|
B|---------------------------|-------------8-10---10-8---|---8-10------8-10---10-8---|---8-10------8-10----|
G|---------------------------|-------------------------9-|-9---------9-------------9-|-9---------9---------|
D|---------------------------|---------------------------|---------------------------|---------------------|
A|---------------------------|---------------------------|---------------------------|---------------------|
E|---------------------------|---------------------------|---------------------------|---------------------|
 
E|--------8---------8--------|--------8---------8--------|--------8---------8--------|--------8---------8--|
B|---8-10------8-10---10-8---|---8-10------8-10---10-8---|---8-10------8-10---10-8---|---8-10------8-10----|
G|-9---------9-------------9-|-9---------9-------------9-|-9---------9-------------9-|-9---------9---------|
D|---------------------------|---------------------------|---------------------------|---------------------|
A|---------------------------|---------------------------|---------------------------|---------------------|
E|---------------------------|---------------------------|---------------------------|---------------------|

[Outro]

   Guitar 1
E|-------0-------------0-------|-------0-------------0--------|
B|-----1----1---1----1----1----|-----3----3---3----3----3-----|
G|--2---------2---2---------2--|--4---------4---4---------4---|
D|--3---------3---3---------3--|--5---------5---5---------5---|
A|-----------------------------|------------------------------|
E|-----------------------------|------------------------------|
 
E|-------0-------------0-------|-------0-------------0--------|---0~--|
B|-----1----1---1----1----1----|-----3----3---3----3----3-----|---1~--|
G|--2---------2---2---------2--|--4---------4---4---------4---|---2~--|
D|--3---------3---3---------3--|--5---------5---5---------5---|---3~--|
A|-----------------------------|------------------------------|-------|
E|-----------------------------|------------------------------|-------|

   Guitar 2 (x2)                        (End 1)       (End 2)
E|----------------------------------|-------------|-------------|
B|----------------------------------|-------------|----------8--|
G|--7h9-7\5------5/7--7/9-7--5/4-4--|--4/5--4-----|--7p5-7/9----|
D|-----------7----------------------|----------7--|-------------|
A|----------------------------------|-------------|-------------|
E|----------------------------------|-------------|-------------|


*************************

|  h    hammer on
|  p    pull off
|  /    slide up
|  \    slide down
|  ~    sustain
Outros vídeos desta música
    21 exibições
      • ½ Tom
      • A
      • Bb
      • B
      • C
      • Db
      • D
      • Eb
      • E
      • F
      • F#
      • G
      • Ab
    • Adicionar à lista

    Afinação da cifra

    Afinador online

      0 comentários

      Ver todos os comentários

      Conseguiu tocar?

      0Tocaram0Ainda não

      Grave um vídeo tocando Super Natural e nos envie!

      Toque também

      1. Imagem do artista BasementCovet Basement
      2. Imagem do artista CitizenThe Night I Drove Alone Citizen
      3. Imagem do artista Tigers JawPlanes Vs Tank Vs Submarine Tigers Jaw
      4. Imagem do artista Title FightCrescent-Shaped Depression Title Fight

      Entre para o Cifra Club PRO

      Tenha acesso a benefícios exclusivos no App e no Site

      • Chega de anúncios

      • Badges exclusivas

      • Mais recursos no app do Afinador

      • Atendimento Prioritário

      • Aumente seu limite de lista

      • Ajude a produzir mais conteúdo

      Cifra Club Pro

      Aproveite o Cifra Club com benefícios exclusivos e sem anúncios
      Cifra Club Pro
      Aproveite o Cifra Club com benefícios exclusivos e sem anúncios
      Ops (: Contenido disponible sólo en portugués.
      OK