Cifra Club

Aprenda

Quebrantado

Vineyard

Cifra: Solo (violão e guitarra)
Já pensou em usar uma coleção de roupas do Cifra Club? Responda as perguntas abaixo e nos ajude nessa missão! →
tom: C
Parte 1 de 8
E|------------------------------------------|
B|-20-------20-------20---------------------|
G|-19b21----19b21----19b21-b21r19p17-19--17~|
D|------------------------------------------|
A|------------------------------------------|
E|------------------------------------------|

E|------------------------------------------|
B|------------------------------------------|
G|-/9--9--10--10--12--12~-------------------|
D|------------------------------------------|
A|------------------------------------------|
E|------------------------------------------|

Parte 2 de 8
E|------------------------------------------|
B|-20-------20-------20---------------------|
G|-19b21----19b21----19br19p17-19--17~------|
D|------------------------------------------|
A|------------------------------------------|
E|------------------------------------------|

E|------------------------------------------|
B|------------------------------------------|
G|-/9--9--10--10--12--12~-------------------|
D|------------------------------------------|
A|------------------------------------------|
E|------------------------------------------|

Parte 3 de 8
E|------------------------------------------|
B|-12b13---12b13r12p10-12~------------------|
G|------------------------------------------|
D|------------------------------------------|
A|------------------------------------------|
E|------------------------------------------|

E|------------------------------------------|
B|----10---13b15--13b15r---13--b15~\--------|
G|-/9----9----------------------------------|
D|------------------------------------------|
A|------------------------------------------|
E|------------------------------------------|

           T
E|------------------------------------------|
B|-15b17--b18/20-b17r15p13-15br\------------|
G|------------------------------------------|
D|------------------------------------------|
A|------------------------------------------|
E|------------------------------------------|

Parte 4 de 8
E|------------------------------------------|
B|-13---------------------------------------|
G|-12h14--12--------------------------------|
D|------------\12p10------------------------|
A|-------------------12-10------------------|
E|------------------------------------------|

E|------------------------------------------|
B|------------------------------------------|
G|-10h12--10--------------------------------|
D|-10h12--10--------------------------------|
A|------------12p10-------------------------|
E|------------------12\---------------------|

Parte 5 de 8
E|------------------------------------------|
B|------------------------------------------|
G|-------5-------------7---------------9----|
D|-7p5-----7-5-10p7------10-7-12p10------12-|
A|-----7------------10--------------12------|
E|------------------------------------------|

E|------------------------------------------|
B|------------------------------------------|
G|-------------12----------------14---------|
D|-10-14p12-------14-12-17p14-------17-14---|
A|----------15----------------17------------|
E|------------------------------------------|

Parte 6 de 8
E|------------------------------------------|
B|----------------20--22--22b25----22b24----|
G|-17-19p17--/21----------------------------|
D|------------------------------------------|
A|------------------------------------------|
E|------------------------------------------|

E|------------------------------------------|
B|-b24r22p20--22~----22b25----22b24---------|
G|------------------------------------------|
D|------------------------------------------|
A|------------------------------------------|
E|------------------------------------------|

E|------------------------------------------|
B|-b24r22p20--22~----------------------/22--|
G|------------------------------------------|
D|------------------------------------------|
A|------------------------------------------|
E|------------------------------------------|

Parte 7 de 8
E|------------------------------------------|
B|-22...-20-17----------22...-20-17---------|
G|-------------21-19-17-------------21-19-17|
D|------------------------------------------|
A|------------------------------------------|
E|------------------------------------------|

E|------------------------------------------|
B|-22-20-17----------22-20-17---------17-20-|
G|----------21-19-17----------19b21---------|
D|------------------------------------------|
A|------------------------------------------|
E|------------------------------------------|

E|------------------------------------------|
B|-------17-20-------17---------------------|
G|-19b21-------19b21----19b21r19p17--19-19~-|
D|------------------------------------------|
A|------------------------------------------|
E|------------------------------------------|

Parte 8 de 8
E|-12--13--12b13r12-------------------------|
B|---------------------\15----13------------|
G|------------------------------------------|
D|------------------------------------------|
A|------------------------------------------|
E|------------------------------------------|

E|-----12--13--12b13r12---------------------|
B|-13----------------------\15p13-----------|
G|------------------------------------------|
D|------------------------------------------|
A|------------------------------------------|
E|------------------------------------------|
Composição de Jeremy Riddle
Colaboração e revisão:
  • Vinícius Dias
  • Thiago Almeida
1.025 exibições
    • ½ Tom
    • A
    • Bb
    • B
    • C
    • Db
    • D
    • Eb
    • E
    • F
    • F#
    • G
    • Ab
  • Adicionar à lista

    0 comentários

    Ver todos os comentários
    00:00 / 00:00
    Outros vídeos desta música
    Repetir Qualidade Automático
    Outros vídeos desta música
    00:00 / 00:00
    Automático
    Capítulos
    • Tocando o Solo
    • Apresentação / Equipamentos
    • Tocando o Solo Lento
    • Encerramento

    Cifra Club Pro

    Aproveite o Cifra Club com benefícios exclusivos e sem anúncios
    Cifra Club Pro
    Aproveite o Cifra Club com benefícios exclusivos e sem anúncios
    OK