Cifra Club

Sinal Disfarçado (part. Israel Novaes)

Zé Ricardo e Thiago

Cifra: Completa
exibições 40.868
Tom: B
E|-----------------------------------------------------------------------------------|
B|-----------------------------------------------------------------------------------|
G|--------------------------------------------------------------9/11-9---------------|
D|---------------------------------------------------------6-9---------11/13---------|
A|--4h6-6--4-4h6--6-6-6-6-4-4-2-2h4--6-7-6-7-6-7-6-7-6-7-9---------------------------|
E|-----------------------------------------------------------------------------------|

E|-----------------------------------------------------------------------------------|
B|-----------------------------------------------------------------------------------|
G|-----------------------------------------------6-8-9-8-6--------6h9~-8-6-----------|
D|--11/13-13---11-11/13--13-13-13-11-11-9-9/11-------------8-6------------9~---------|
A|-------------------------------------------------------------8---------------------|
E|---------------------------------------------------------------7-------------------|

 B                          F#
Peguei no seu cabelo, você disse "fiquei louca"
 C#m                      E
Falei no ouvidinho vou beijar na sua boca
B                              F#
Você piscou pra mim dizendo estou acompanhada
C#m                       E
E o cara do seu lado olhando sem entender nada
C#m                        E
Era ele virar e você me olhar pra gente combinar
B                              F#
O sinal disfarçado com jeito safado e gostoso de me olhar

B                    F#
Vai no banheiro pra gente se beijar
C#m                           E
Bem la no escurinho pra ninguém desconfiar
B                    F#
Cara de santa, mas não me engana não
C#m                        E
É hoje q eu te pego, você não me escapa não

B                  F#
Se eu te pego ãh, Se eu te beijo ãh
C#m                     E
Se eu te pego ãh, ãh, ãh, ãh, ãh

Solo final:
E|-----------------------------------------------------------------------------------|
B|-----------------------------------------------------------------------------------|
G|-----------------------------------------------------------------------------------|
D|-----------------------------------------------------------------------------------|
A|--4h6-6---4-4h6--6-6-6-6~----------------------------------------------------------|
E|-----------------------------------------------------------------------------------|
Acordes para:
    Colaboração e revisão:
    • Hugo Milani
    • lucasfelixteixeira
    • Felipe Giacomini

    0 comentários

      mostrar mais comentários

      Conseguiu tocar?

      22tocaram1ainda não

      Grave um vídeo tocando Sinal Disfarçado (part. Israel Novaes) e mande pra gente!

      00:00 / 00:00
      outros vídeos desta música
      repetirqualidadeautomática
      Outro vídeos desta música
        00:00 / 00:00
        automática
        Capítulos
        • Início
        • Tocando a música
        • Acordes da música
        • Ensinando Ritmo da música
        • Ensinando Solo
        • Encerramento
        OK