Hells Bells

AC/DC

 AC/DC
Tom: C
		

E|-------------------------|------------------------|
B|-------------------------|------------------------|
G|-----9-----7----------5--|----------7-------------|
D|--------7-------7--------|----5-----7----7--------|
A|--0----------------0-----|-------0----------0--0--|
E|-------------------------|------------------------|



E|------------------------|
B|------------------------|
G|----9-----7----------5--|
D|-------7-------7--------|
A|------------------0-----|
E|------------------------|



E|------------------------|------------------------|
B|------------------------|------------------------|
G|----------7-------------|----9-----7----------5--|
D|----5-----7----5--5-----|-------7-------7--------|
A|-------0-------3--2--0--|------------------0-----|
E|------------------------|------------------------|



------------------------|
------------------------|
----------7-------------|
----5-----7----7--------|
-------0----------0--0--|
------------------------|



------------------------|------------------------|
------------------------|------------------------|
----9-----7----------5--|----------7-------------|
-------7-------7--------|----5-----7----5--5-----|
------------------0-----|-------0-------3--2--0--|
------------------------|------------------------|



------------------------|
------------------------|
----9-----7----------5--|
-------7-------7--------|
------------------0-----|
------------------------|



------------------------|------------------------|
------------------------|------------------------|
----------7-------------|----9-----7----------5--|
----5-----7----7--------|-------7-------7--------|
-------0----------0--0--|------------------0-----|
------------------------|------------------------|



------------------------|
------------------------|
----------7-------------|
----5-----7----5--5-----|
-------0-------3--2--0--|
------------------------|



------------------------|------------------------|
------------------------|------------------------|
----9-----7----------5--|----------7-------------|
-------7-------7--------|----5-----7----7--------|
------------------0-----|-------0----------0--0--|
------------------------|------------------------|




------------------------|
------------------------|
----9-----7----------5--|
-------7-------7--------|
------------------0-----|
------------------------|




------------------------|------------------------|
------------------------|------------------------|
----------7-------------|----9-----7----------5--|
----5-----7----5--5-----|-------7-------7--------|
-------0-------3--2--0--|------------------0-----|
------------------------|------------------------|



------------------------|
------------------------|
----------7-------------|
----5-----7----7--------|
-------0----------0--0--|
------------------------|



------------------------|------------------------|
------------------------|------------------------|
----9-----7----------5--|----------7-------------|
-------7-------7--------|----5-----7----5--5-----|
------------------0-----|-------0-------3--2--0--|
------------------------|------------------------|



------------------------|
------------------------|
----9-----7----------5--|
-------7-------7--------|
------------------0-----|
------------------------|



------------------------|---------------------3--|
------------------------|---------------------3--|
----------7-------------|----9-----7----------0--|
----5-----7----7--------|-------7--7----7-----0--|
-------0----------0--0--|------------------0-----|
------------------------|---------------------3--|




----3-------------------|
----3-----3-------------|
----0-----2-------------|
----0-----0----5--5-----|
----------0----3--2--0--|
----3--0--2-------------| a




-------------------------|---------------------|
----------------3-----3--|---------------------|
-----2----------2--0--2--|---------------------|
-----2--0--2----0--0--0--|-----------5----5----|
--0-----0--0-------------|--------0--3----2----|
-------------------------|---------------------|



--------------------------|
-----------------3-----3--|
-----2-----------2--0--2--|
-----2--0--2-----0--0--0--|
--0-----0--0--0-----------|
--------------------------|



------------------------|-------------------------|
------------------------|----------------3-----3--|
------------------------|-----2-----2----2--0--2--|
--0--0--0-----5----5----|--2--2--0--2----0--0--0--|
-----------0--3----2----|--0-----0--0-------------|
------------------------|-------------------------|



------------------------|
------------------------|
--------2---------------|
--0--0--0-----5----5----|
-----------0--3----2----|
------------------------|



-------------------------|------------------------|
----------------3-----3--|--------3---------------|
-----2-----2----2--0--2--|--------2---------------|
--2--2--0--2----0--0--0--|--0--0--0-----5----5----|
--0-----0--0-------------|-----------0--3----2----|
-------------------------|------------------------|



-------------------------|
----------------3-----3--|
-----2-----2----2--0--2--|
--2--2--0--2----0--0--0--|
--0-----0--0-------------|
-------------------------|



------------------------|-------------------------|
--------3---------------|----------------3-----3--|
--------2---------------|-----2-----2----2--0--2--|
--0--0--0-----5----5----|--2--2--0--2----0--0--0--|
-----------0--3----2----|--0-----0--0-------------|
------------------------|-------------------------|



-----------------------|
----3--3---------------|
----2--2---------------|
----0--0-----5----5----|
----------0--3----2----|
-----------------------|



-----------2----2-----2--|----2--2----------3----|
-----3-----3----3--3--3--|----3--3-----5----3----|
-----2--0--2----2--0--2--|----2--2--0--5----0----|
--0--0--0--0----0--0--0--|----0--0--0--5----0----|
-------------------------|-------------3---------|
-------------------------|------------------3----|




--------0--2----2--0--2--|
-----3--3--3----3--3--3--|
-----2--0--2----2--0--2--|
--0--0--0--0----0--0--0--|
-------------------------|
-------------------------|






----2--2----------3----|-------------------------|
----3--3-----5----3----|-----9----------9-----9--|
----2--2--0--5----0----|-----9-----9----9-----9--|
----0--0--0--5----0----|-----9--7--9----9--7--9--|
-------------3---------|-----7--7--7----7--7--7--|
------------------3----|--0-----0--0-------0-----|



-------------2---------|
----9--9-----3---------|
----9--9-----2----2----|
----9--9--0--0----2----|
----7--7--0--0----0----|
-----------------------|



-------------------------|-------------3----3----|
-----------9----9-----9--|----9--9-----3----3----|
-----9-----9----9-----9--|----9--9--0--0----0----|
-----9--7--9----9--7--9--|----9--9--0--0----0----|
-----7--7--7----7--7--7--|----7--7--0------------|
--0-----0----------0-----|-------------3----3b---|



-------------------------|
-------------------------|
-----9-----7----------5--|
--------7-------7--------|
--0----------------0-----|
-------------------------|



------------------------|------------------------|------------------------|
------------------------|------------------------|------------------------|
----------7-------------|----9-----7----------5--|----------7-------------|
----5-----7----7--------|-------7-------7--------|----5-----7----5--5-----|
-------0----------0--0--|------------------0-----|-------0-------3--2--0--|
------------------------|------------------------|------------------------|



-------------------------|------------------------|---------------------3--|
-------------------------|------------------------|---------------------3--|
-----9-----7----------5--|----------7-------------|----9-----7----------0--|
--------7-------7--------|----5-----7----7--------|-------7--7----7-----0--|
--0----------------0-----|-------0----------0--0--|------------------0-----|
-------------------------|------------------------|---------------------3--|



----3-----2-------------|------------------------|------------------------|
----3-----3-------------|---------------3-----3--|------------------------|
----0-----2-------------|----2--0--2----2--0--2--|------------------------|
----0-----0----5--5-----|----2--0--2----0--0--0--|--0--0--0-----5----5----|
----------0----3--2--0--|-------0--0-------------|-----------0--3----2----|
----3--0--2-------------|------------------------|------------------------|



--------------------------|-----------------------|-------------------------|
-----------------3-----3--|-----------------------|----------------3-----3--|
-----2--0--2-----2--0--2--|-----------------------|-----2-----2----2--0--2--|
-----2--0--2-----0--0--0--|----0--0-----5----5----|--2--2--0--2----0--0--0--|
--0-----0--0--0-----------|----------0--3----2----|--0-----0--0-------------|
--------------------------|-----------------------|-------------------------|



------------------------|-------------------------|------------------------|
------------------------|----------------3-----3--|--------3---------------|
--------2---------------|-----2-----2----2--0--2--|--------2---------------|
--0--0--0-----5----5----|--2--2--0--2----0--0--0--|--0--0--0-----5----5----|
-----------0--3----2----|--0-----0--0-------------|-----------0--3----2----|
------------------------|-------------------------|------------------------|



-------------------------|------------------------|-------------------------|
----------------3-----3--|--------3---------------|----------------3-----3--|
-----2-----2----2--0--2--|--------2---------------|-----2-----2----2--0--2--|
--2--2--0--2----0--0--0--|--0--0--0-----5----5----|--2--2--0--2----0--0--0--|
--0-----0--0-------------|-----------0--3----2----|--0-----0--0-------------|
-------------------------|------------------------|-------------------------|



-----------------------|-----------2----2-----2--|----2--2----------3----|
----3--3---------------|-----3-----3----3--3--3--|----3--3-----5----3----|
----2--2---------------|-----2--0--2----2--0--2--|----2--2--0--5----0----|
----0--0-----5----5----|--0--0--0--0----0--0--0--|----0--0--0--5----0----|
----------0--3----2----|-------------------------|-------------3---------|
-----------------------|-------------------------|------------------3----|



--------0--2----2--0--2--|----2--2----------3----|-------------------------|
-----3--3--3----3--3--3--|----3--3-----5----3----|-----9----------9-----9--|
-----2--0--2----2--0--2--|----2--2--0--5----0----|-----9-----9----9-----9--|
--0--0--0--0----0--0--0--|----0--0--0--5----0----|-----9--7--9----9--7--9--|
-------------------------|-------------3---------|-----7--7--7----7--7--7--|
-------------------------|------------------3----|--0-----0--0-------0-----|



-------------2---------|-------------------------|-------------3----3----|
----9--9-----3---------|-----------9----9-----9--|----9--9-----3----3----|
----9--9-----2----2----|-----9-----9----9-----9--|----9--9--0--0----0----|
----9--9--0--0----2----|-----9--7--9----9--7--9--|----9--9--0--0----0----|
----7--7--0--0----0----|-----7--7--7----7--7--7--|----7--7--0------------|
-----------------------|--0-----0----------0-----|-------------3----3b---|



-------------------------|------------------------|------------------------|
-------------------------|------------------------|------------------------|
-----9-----7----------5--|----------7-------------|----9-----7----------5--|
--------7-------7--------|----5-----7----7--------|-------7-------7--------|
--0----------------0-----|-------0----------0--0--|------------------0-----|
-------------------------|------------------------|------------------------|



------------------------|-------------------------|------------------------|
------------------------|-------------------------|------------------------|
----------7-------------|-----9-----7----------5--|----------7-------------|
----5-----7----5--5-----|--------7-------7--------|----5-----7----7--------|
-------0-------3--2--0--|--0----------------0-----|-------0----------0--0--|
------------------------|-------------------------|------------------------|



---------------------3--|----3-----2-------------|------------------|
---------------------3--|----3-----3-------------|------------------|
----9-----7----------0--|----0-----2----------2--|------------------|
-------7--7----7-----0--|----0-----0----5--5--2--|------------------|
------------------0-----|----------0----3--2--0--|------------------|
---------------------3--|----3--0--2-------------|------------------|


play solo


-------------------|-------------------|------------------|
-------------------|-------------------|------------------|
----------------2--|--2----------------|------------------|
----------------2--|--2----------------|------------------|
----------------0--|--0----------------|------------------|
-------------------|-------------------|------------------|



-----------------------|---------------------|------------------------|
-----------------------|---------------------|------------------------|
----2-----2---------5--|---------7------7----|-----2-----2---------5--|
----2-----2---------5--|---------7------7----|-----2-----2---------5--|
----0-----0---------3--|---------5------5----|--x--0-----0---------3--|
-------3b--------0-----|------0--------------|--------3b--------0-----|



----------------------|------------------------|----------------------|
----------------------|------------------------|----------------------|
---------7----7--7----|-----2-----2---------5--|---------7----7--7----|
---------7----7--7----|-----2-----2---------5--|---------7----7--7----|
---------5----5--5----|--x--0-----0---------3--|---------5----5--5----|
------0---------------|--------3b--------0-----|------0---------------|



------------------------|----------------------|-------------------------|
------------------------|----------------------|--3--3-----3----3-----3--|
-----2-----2---------5--|---------7----7--7----|--2--2--0--2----2--0--2--|
-----2-----2---------5--|---------7----7--7----|--0--0--0--0----0--0--0--|
--x--0-----0---------3--|---------5----5--5----|-------------------------|
--------3b--------0-----|------0---------------|-------------------------|



------------------3----|-------------------------|------------------3----|
----3--3----------3----|--3--3-----3----3-----3--|----3--3----------3----|
----2--2-----5----0----|--2--2--0--2----2--0--2--|----2--2-----5----0----|
----0--0-----5----0----|--0--0--0--0----0--0--0--|----0--0-----5----0----|
-------------3---------|-------------------------|-------------3---------|
----------0-------3----|-------------------------|----------0-------3----|



-------------------------|--------------2---------|-------------------------|
-----9-----9----9--------|-----9--9-----3----2----|-----9-----9----9-----9--|
-----9--7--9----9--7--9--|-----9--9-----2----2----|-----9--7--9----9--7--9--|
-----9--7--9----9--7--9--|-----9--9-----0----2----|-----9--7--9----9--7--9--|
-----7--7--7----7--7--7--|-----7--7--0-------0----|-----7--7--7----7--7--7--|
--0--------0----------0--|--0-----0---------------|--0--------0-------------|



--------------3----3----|-------------------------|------------------------|
-----9--9-----3----3----|-------------------------|------------------------|
-----9--9-----0----0----|-----9-----7----------5--|----------7-------------|
-----9--9-----0----0----|--------7-------7--------|----5-----7----7--------|
-----7--7--0------------|--0----------------0-----|-------0----------0--0--|
--0--------0--3----3b---|-------------------------|------------------------|



------------------------|------------------------|-------------------------|
------------------------|------------------------|-------------------------|
----9-----7----------5--|----------7-------------|-----9-----7----------5--|
-------7-------7--------|----5-----7----5--5-----|--------7-------7--------|
------------------0-----|-------0-------3--2--0--|--0----------------0-----|
------------------------|------------------------|-------------------------|



------------------------|------------------------|------------------------|
------------------------|------------------------|------------------------|
----------7-------------|----9-----7----------5--|----5-----7-------------|
----5-----7----7--------|----7-----7----7-----5--|----5-----7----5--5-----|
-------0----------0--0--|-------0----------0--3--|----3--0--5----3--2--0--|
------------------------|------------------------|------------------------|



------------------------|------------------------|------------------------|
------------------------|------------------------|------------------------|
----9-----7----------5--|----------7-------------|----9-----7----------5--|
----7--7--7----7--------|----5----------7--------|----7-----7----7-----5--|
------------------0-----|-------0----------0--0--|-------0----------0--3--|
------------------------|------------------------|------------------------|



------------------------|------------------------|------------------------|
------------------------|------------------------|------------------------|
----5-----7-------------|----9-----7----------5--|----------7-------------|
----5-----7----5--5-----|----7--7--7----7--------|----5----------7--------|
----3--0--5----3--2--0--|------------------0-----|-------0----------0--0--|
------------------------|------------------------|------------------------|



------------------------|------------------------|------------------------|
------------------------|------------------------|------------------------|
----9-----7----------5--|----5-----7----7--7--7--|-----2-----2---------5--|
----7-----7----7-----5--|----5-----7----7--7--7--|-----2-----2---------5--|
-------0----------0--3--|----3--0--5----5--5--5--|--x--0-----0---------3--|
------------------------|-------0----------------|--------3b--------0-----|



----------------------|------------------------|----------------------|
----------------------|------------------------|----------------------|
---------7----7--7----|-----2-----2---------5--|---------7----7--7----|
---------7----7--7----|-----2-----2---------5--|---------7----7--7----|
---------5----5--5----|--x--0-----0---------3--|---------5----5--5----|
------0---------------|--------3b--------0-----|------0---------------|



------------------------|----------------------|---------------------|
------------------------|----------------------|---------------------|
-----2-----2---------5--|---------7----7--7----|----2-------2--------|
-----2-----2---------5--|---------7----7--7----|----2-------2--------|
--x--0-----0---------3--|---------5----5--5----|----0-------0--------|
--------3b--------0-----|------0---------------|--------3b-----------|



--------------------|------------------|---------------------||
--------------------|------------------|---------------------||
--5--------7--------|------------------|----2-----2----------||
--5--------7--------|------------------|----2-----2----------||
--3--------5--------|------------------|----0-----0----------||
--------------------|------------------|-------3b------------||



solo


--------------------------|------------5--------|
----8--7r-5---------------|------------5--7b-7--|
----7--7r----7--5b--------|---------------7b-7--|
-------------------7--5/7~|---------------------|
--------------------------|---------------------|
--------------------------|---------------------|



--------------------|------------------------|---------------------------|
----------7b--------|------------------------|---------------------------|
----------7b---x\---|------------------------|------------2---------7b---|
---------------x\---|-----5h7~-----4h5~------|--2h4-----x---4/7~---------|
---------------x\---|---x--------x-----------|------3p0------------------|
--------------------|------------------------|---------------------------|


                                Release only


--------------------------|----------------------------|
----8-------8-8--8-8--8-8-|---8-8-------------7---5----|
-------7b---9-9--9-9--9-9-|---7b7r------5p0---7---5----|
--------------------------|-----------x-----7---7------|
--------------------------|----------------------------|
--------------------------|----------------------------|



--------------------------|------------------------------|
------8--------7--7~------|------8~---------10--10~------|
--7/9-9-9~---0-7--7~----5-|--7/9-9~----9/11-11--11~----9-|
--------------------------|------------------------------|
--------------------------|------------------------------|
--------------------------|------------------------------|



-----------------------------------------------------------|
-----13-------13-13-------13-13----------13----13----13----|
--14-14-12/14-14-14-13/14-14-14-13-13/14-14-14----14----14-|
-----------------------------------------------------------|
-----------------------------------------------------------|
-----------------------------------------------------------|



--12----12------10--10----x-----|--10~-------------------------|
--13----13------13b-13b-----x---|--13b---12r---10\---14/15-15~-|
-----14-----------------------x-|--------------------13/14-14~-|
--------------------------------|------------------------------|
--------------------------------|------------------------------|
--------------------------------|------------------------------|



----------------------------------|------------17--------17-------|
----13----15----15~---15~-15\-----|--15--17b---19--17b------17b---|
-------14-14-14-------14~-14\-----|-------------------------------|
-------------------------------16-|-------------------------------|
----------------------------------|-------------------------------|
----------------------------------|-------------------------------|



--17--17-------------------------|---------------------------17----|
--17b-17r-----15h18p15----15\----|--20----20--------20----------20-|
-----------------------16-----0--|--19b---19b---19b----19b---------|
---------------------------------|---------------------------------|
---------------------------------|---------------------------------|
---------------------------------|---------------------------------|



--------------------------------------17-|
--17-----------------------20b-20b-------|
-----19r-17----19-17b--------------------|
------------19-------19p17---------------|
-----------------------------------------|
-----------------------------------------|



--17-20p17----17----------20b---20b---|
-----------20b---20b20p17-------------|
--------------------------------------|
--------------------------------------|
--------------------------------------|
--------------------------------------|



--17--------------------------------------|
-----20p17--------------------------------|
-----------19b19----------17~---12/14~14\-|
-----------------19-16-19-----------------|
------------------------------------------|
------------------------------------------|



|--------------------|
|----------------19b-|
|--------------------|
|--------------------|
|--------------------|



----17--------------------|------------------------|----17--------------------|
--------------------------|------------------------|--------------------------|
--------19b-19~-------17--|--------19~-----19--19b-|--------19b-19~-------17--|
--------------------------|------------------------|--------------------------|
--------------------------|------------------------|--------------------------|
--------------------------|------------------------|--------------------------|



------------------------|----17--------------------|----------------------|
------------------------|--------------------------|----------------------|
--------19~-----19--19b-|--------19b-19~-------17--|--------19~-------19b-|
------------------------|--------------------------|----------------------|
------------------------|--------------------------|----------------------|
------------------------|--------------------------|----------------------|


              D.P.


----17--------------------|------------------------|
----------------------20\-|------------------------|
--------19r---19~---------|------------------------|
--------------------------|------------------------|
--------------------------|------------------10\---|
--------------------------|--------17\-12\---------|



-------------------------------|-----------------------------|
-------------------------------|-----------------------------|
-------------------------------|-----------------------------|
-------------------------------|------------10/12~------10---|
-------12---10---12~-------12\-|----3----12-----------x------|
--0--x----x----x--------0------|-------x---------------------|



---------------------------|----------------------------------|
----10--10--10-------------|----------------------------------|
----12b-12--12b--------17--|------------------17--------------|
--------------------x------|----19--17h19---x----19~--19~19\--|
---------------------------|----------------------------------|
---------------------------|----------------------------------|



------------------------------|---17--------17------------------|
--x--10--10--10-----------20b-|------17-20b----17--20b---20\----|
--x--12b-12--12b---12\--------|-------------------------------0-|
------------------------------|---------------------------------|
------------------------------|---------------------------------|
-----------------------x------|---------------------------------|



----------------------17-------------------|
----20b--20b--20b--20b---20-17----------20-|
-------------------------------19r17-19b---|
-------------------------------------------|
-------------------------------------------|
-------------------------------------------|



---------------------------------------|---------------------|
---------20-20-20-20-20--------19-17---|--x\-----------------|
--19b-------19b19b19b19b-17~---19-17---|--x\-----------------|
----------------------------19---------|--x\------7p5--------|
---------------------------------------|--x\-----------------|
---------------------------------------|---------------------|



---------------------||
---------------------||
----2-----2----------||
----2-----2----------||
----0-----0----------||
-------3b------------||
Texto Colunas
Alterar tom ½ tom ½ tom
afinação acordes na letra esconder tabs mais »

Comentários 38

  • Maxwell Maxwell: Postado em 08/09/2014 13:07

    Improvisar no final, o Tarsius arrebento

  • Maxwell Maxwell: Postado em 07/09/2014 15:19

    No solo 1 parte 3 mostra um parte que ele toca grave mas ali mostra agudo!! Se liguem com isso

  • lukewilkshire.lukwill lukewilkshire.lukwill: Postado em 04/03/2014 19:18

    Essa é uma música do AC/DC que nem a voz do vocalista consague estragar.

  • vinicius.alvesnegrao vinicius.alvesnegrao: Postado em 28/02/2014 01:21

    Parabéns Tarsius ficou foda!!!kkkkkkkkkkkkkkk

  • miguel.raabe miguel.raabe: Postado em 24/09/2013 16:19

    como ta equalizado o cubo?

  • saulhudson.kiko saulhudson.kiko: Postado em 24/08/2013 19:10

    Muito boa ,Tarsius Lima.

  • dudysalvador dudysalvador: Postado em 21/05/2013 19:20

    O ac/dc só é o ac/dc hj graças a um cara BON SCOTT

  • cabug2 cabug2: Postado em 24/03/2013 13:13

    Trocar A Voz Do Brian Pra Essa... Que Vergonha Cifra Club

    • Fernando Fernando: Postado em 16/07/2013 20:17

      Nossa cara, essa voz é broxante KKKKKKKK
      dps do solo, muito foda, vem essa voz escrota ai KKKKKK

  • Frederico Frederico: Postado em 27/02/2013 23:02

    Angus.. esse cara é foda!

Exibindo 10 de 38 comentários Mostrar mais ver todos »
Composição: Angus Young / Brian Johnson / Johan Fransson / José Raimundo / Malcolm Young / Nelly Furtado
Esse não é o compositor? Avise-nos.
Contribuição: Tiago Correções: Fernando e mais 1 »
  1. Até Você Voltar - Henrique e Juliano Manteve-se 100.530 exibições
  2. Domingo de Manhã - Marcos e Belutti Manteve-se 81.990 exibições
  3. Cuida Bem Dela - Henrique e Juliano Manteve-se 53.116 exibições
  4. Recaídas - Henrique e Juliano Manteve-se 44.094 exibições
  5. Pra Você - Onze:20 Manteve-se 40.225 exibições
  6. Choram As Rosas - Bruno e Marrone Manteve-se 36.007 exibições
  7. Raridade - Anderson Freire Manteve-se 33.869 exibições
  8. Só Os Loucos Sabem - Charlie Brown Jr. Manteve-se 33.732 exibições
  9. Logo Eu - Jorge e Mateus Manteve-se 31.459 exibições
  10. Pais e Filhos - Legião Urbana Manteve-se 30.270 exibições
  1. Henrique e Juliano- Manteve-se 282.025 exibições
  2. Jorge e Mateus- Manteve-se 233.750 exibições
  3. Legião Urbana- Manteve-se 203.619 exibições
  4. Bruno e Marrone- Manteve-se 154.179 exibições
  5. Charlie Brown Jr.- Manteve-se 153.397 exibições
  6. Fernandinho- Manteve-se 122.907 exibições
  7. Luan Santana- Manteve-se 106.344 exibições
  8. Marcos e Belutti- Manteve-se 100.570 exibições
  9. Thalles Roberto- Manteve-se 93.287 exibições
  10. The Beatles- Manteve-se 88.132 exibições
Exibir acordes »

Cifras e tabs

Fórum Cifra Club

Aprenda

Cifra Club News

Mais Serviços Cifra Club ID

Studio Sol

©1996 - 2014 Cifra Club · o primeiro, maior e mais acessado do Brasil · 339 mil músicas · 6.3 milhões pessoas cadastradas

publicidade
fechar