AC/DC

Hells Bells

340.736 exibições
Tom: G
Riff 1:

  A5       A4       A4         A4
E|---------------------------------------|       ------|
B|---------------------------------------|             |
G|---9-----7---------5----------7--------|             |
D|------7------7--------5----------7-----|             |
A|-0--------------0---------0----------0-|             |
E|---------------------------------------|             |
                                                       | (5x)


  A5       A4         C5 B5+              
E|---------------------------------------|             |
B|---------------------------------------|             |
G|---9-----7---------5----------7--------|             |
D|------7------7--------5-------7--5--5--|             |
A|-0--------------0---------0------3--2--|             |
E|---------------------------------------|      -------|


  A5       A4       Am7         A4
E|---------------------------------------|
B|---------------------------------------|
G|---9-----7---------5----------7--------|
D|------7------7--------5----------7-----|
A|-0--------------0---------0----------0-|
E|---------------------------------------|


  A5       A4          G           D  C5 B5+
E|---------------------3----3------2-------|
B|---------------------3----3--x---3-------|
G|---9-----7-----------0----3--x---2-------|
D|------7------7-------0----0--x---0--5--5-|
A|-0--------------0-------------------3--2-|
E|---------------------3----3--3-----------| 


Riff 2(variação):

  A5        A5  D5(9)            C5 B5+
E|-------------x---------------------------|
B|-------------x---------------------------|
G|----9--7--9--x--7--5---7--x--x--7--------|      (2x)
D|-2--7--7--7--x--7--5---7--7--7--7--5---5-|
A|-0-----------x--5--5---5--5--5--5--3---2-|
E|-------------x---------------------------|



Riff 3:

  D5(9)                      C5   G5
E|-----------------------------------------|
B|----3--0--3--3--0--3-----3---------------|
G|-2--2--0--2--2--0--2-----2---------------|     (4x)
D|-0-----0--0--0--0--0-----0--5------------|
A|-----------------------0----3---5--------|
E|--------------------------------3--------|


I'm rolling thunder, pouring rain
I'm coming on like a hurricane
My lightning's flashing across the sky
You're only young, but you're gonna die


Riff 4:

   D5(9)                                     G
E|-----------2----2-----2------2--2----------3----|
B|-----3-----3----3--3--3------3--3-----5----3----|
G|-----2--0--2----2--0--2------2--2--0--5----0----|
D|--0--0--0--0----0--0--0------0--0--0--5----0----|     (2x)
A|--------------------------------------3---------|
E|-------------------------------------------3----|


I won't take no prisoners, won't spare no lives
Nobody's putting up a fight

Riff 5:

  E5                       D5 A5
E|-------------------------------|
B|-------------------------------|
G|-------------------------------|
D|-9-7-9---9-7-9---9-7-9---7-----|
A|-7-7-7---7-7-9---7-7-9---5--7--|
E|-0-------0-------0----------5--|


   E5                     G5
E|-------------------------3-----|
B|-------------------------3-----|
G|-------------------------0-----|
D|-9-7-9---9-7-9---9-7-9---0-----|
A|-7-7-7---7-7-9---7-7-9---2-----|
E|-0-------0-------0-------3-----|


I got my bell, I'm gonna take you to hell
I'm gonna get ya, Satan get ya

Riff 1:

  A5       A4       Am7         A4
E|---------------------------------------|
B|---------------------------------------|
G|---9-----7---------5----------7--------|
D|------7------7--------5----------7-----|
A|-0--------------0---------0----------0-|
E|---------------------------------------|


  A5       A4       Am7        A4  C5 B5+
E|---------------------------------------|
B|---------------------------------------|
G|---9-----7---------5----------7--------|
D|------7------7--------5-------7--5--5--|
A|-0--------------0---------0------3--2--|
E|---------------------------------------|


  A5       A4       Am7         A4
E|---------------------------------------|
B|---------------------------------------|
G|---9-----7---------5----------7--------|
D|------7------7--------5----------7-----|
A|-0--------------0---------0----------0-|
E|---------------------------------------|


  A5       A4          G           D  C5 B5+
E|---------------------3----3------2-------|
B|---------------------3----3--x---3-------|
G|---9-----7-----------0----3--x---2-------|
D|------7------7-------0----0--x---0--5--5-|
A|-0--------------0-------------------3--2-|
E|---------------------3----3--3-----------|


Hells bells
Hells bells, you got me ringing
Hells bells, my temperature's high
Hells bells

Riff 2:

  A5        A5  D5(9)            C5 B5+
E|-----------------------------------------|
B|--------------3--0--3-----3--------------|
G|----2--0--2---2--0--2-----2--------------|
D|-2--2--0--2---0--0--0-0-0-0-0--5---5-----|
A|-0—0--0--0-0-------------------3---2-----|
E|-----------------------------------------|


I'll give you black sensations up and down your spine
If you're into evil, you're a friend of mine
See the white light flashing as I split the night
'Cos if good's on the left, then I'm sticking to the right

Riff 4:

   D5(9)                                     G
E|-----------2----2-----2------2--2----------3----|
B|-----3-----3----3--3--3------3--3-----5----3----|
G|-----2--0--2----2--0--2------2--2--0--5----0----|
D|--0--0--0--0----0--0--0------0--0--0--5----0----|     (2x)
A|--------------------------------------3---------|
E|-------------------------------------------3----|


I won't take no prisoners, won't spare no lives
Nobody's putting up a fight

Riff 5:

  E5                       D5 A5
E|-------------------------------|
B|-------------------------------|
G|-------------------------------|
D|-9-7-9---9-7-9---9-7-9---7-----|
A|-7-7-7---7-7-9---7-7-9---5--7--|
E|-0-------0-------0----------5--|


   E5                     G5
E|-------------------------3-----|
B|-------------------------3-----|
G|-------------------------0-----|
D|-9-7-9---9-7-9---9-7-9---0-----|
A|-7-7-7---7-7-9---7-7-9---2-----|
E|-0-------0-------0-------3-----|


I got my bell, I'm gonna take you to hell
I'm gonna get ya, Satan get ya

Riff 1:

  A5       A4       Am7         A4
E|---------------------------------------|
B|---------------------------------------|
G|---9-----7---------5----------7--------|
D|------7------7--------5----------7-----|
A|-0--------------0---------0----------0-|
E|---------------------------------------|


  A5       A4       Am7        A4  C5 B5+
E|---------------------------------------|
B|---------------------------------------|
G|---9-----7---------5----------7--------|
D|------7------7--------5-------7--5--5--|
A|-0--------------0---------0------3--2--|
E|---------------------------------------|


  A5       A4       Am7         A4
E|---------------------------------------|
B|---------------------------------------|
G|---9-----7---------5----------7--------|
D|------7------7--------5----------7-----|
A|-0--------------0---------0----------0-|
E|---------------------------------------|


  A5       A4          G           D  C5 B5+
E|---------------------3----3------2-------|
B|---------------------3----3--x---3-------|
G|---9-----7-----------0----3--x---2-------|
D|------7------7-------0----0--x---0--5--5-|
A|-0--------------0-------------------3--2-|
E|---------------------3----3--3-----------|


Hells bells
Hells bells, you got me ringing
Hells bells, my temperature's high
Hells bells

Hells bells, Satan's coming to you
Hells bells, he's ringing them now
Those hells bells, the temperature's high
Hells bells, across the sky
Hells bells, they're taking you down
Hells bells, they're dragging you down
Hells bells, gonna split the night
Hells bells, there's no way to fight
Hells bells

Base Solo:

                  A5   A5
E|-------------------|-------------------|------------------|
B|-------------------|-------------------|------------------|
G|----------------2--|--2----------------|------------------|
D|----------------2--|--2----------------|------------------|
A|----------------0--|--0----------------|------------------|
E|-------------------|-------------------|------------------|


      A5 G5 A5    E5  C5           D5     D5        A5 G5  A5       C5
E|-----------------------|---------------------|------------------------|
B|-----------------------|---------------------|------------------------|
G|----2-----2---------5--|---------7------7----|-----2-----2---------5--|
D|----2-----2---------5--|---------7------7----|-----2-----2---------5--|
A|----0-----0---------3--|---------5------5----|--x--0-----0---------3--|
E|-------3b--------0-----|------0--------------|--------3b--------0-----|


          D5    D5 D5        A5 G5  A5        C5          D5    D5 D5
E|----------------------|------------------------|----------------------|
B|----------------------|------------------------|----------------------|
G|---------7----7--7----|-----2-----2---------5--|---------7----7--7----|
D|---------7----7--7----|-----2-----2---------5--|---------7----7--7----|
A|---------5----5--5----|--x--0-----0---------3--|---------5----5--5----|
E|------0---------------|--------3b--------0-----|------0---------------|


       A5 G5  A5       C5           D5  D5 D5      A5  A5 D5 A5   A5 D5 A5
E|------------------------|----------------------|-------------------------|
B|------------------------|----------------------|--3--3-----3----3-----3--|
G|-----2-----2---------5--|---------7----7--7----|--2--2--0--2----2--0--2--|
D|-----2-----2---------5--|---------7----7--7----|--0--0--0--0----0--0--0--|
A|--x--0-----0---------3--|---------5----5--5----|-------------------------|
G|--------3b--------0-----|------0---------------|-------------------------|


      A5 A5   C5    G5      A5 A5 D5 A5   A5 D5 A5      A5 A5   C5    G5
E|------------------3----|-------------------------|------------------3----|
B|----3--3----------3----|--3--3-----3----3-----3--|----3--3----------3----|
G|----2--2-----5----0----|--2--2--0--2----2--0--2--|----2--2-----5----0----|
D|----0--0-----5----0----|--0--0--0--0----0--0--0--|----0--0-----5----0----|
A|-------------3---------|-------------------------|-------------3---------|
E|----------0-------3----|-------------------------|----------0-------3----|


       E                                  D               E
E|-------------------------|--------------2---------|-------------------------|
B|-----9-----9----9--------|-----9--9-----3----2----|-----9-----9----9-----9--|
G|-----9--7--9----9--7--9--|-----9--9-----2----2----|-----9--7--9----9--7--9--|
D|-----9--7--9----9--7--9--|-----9--9-----0----2----|-----9--7--9----9--7--9--|
A|-----7--7--7----7--7--7--|-----7--7--0-------0----|-----7--7--7----7--7--7--|
E|--0--------0----------0--|--0-----0---------------|--0--------0-------------|


       E        G5         Riff 1:
E|--------------3----3----|-------------------------|------------------------|
B|-----9--9-----3----3----|-------------------------|------------------------|
G|-----9--9-----0----0----|-----9-----7----------5--|----------7-------------|
D|-----9--9-----0----0----|--------7-------7--------|----5-----7----7--------|
A|-----7--7--0------------|--0----------------0-----|-------0----------0--0--|
E|--0--------0--3----3b---|-------------------------|------------------------|


E|------------------------|------------------------|-------------------------|
B|------------------------|------------------------|-------------------------|
G|----9-----7----------5--|----------7-------------|-----9-----7----------5--|
D|-------7-------7--------|----5-----7----5--5-----|--------7-------7--------|
A|------------------0-----|-------0-------3--2--0--|--0----------------0-----|
E|------------------------|------------------------|-------------------------|


E|------------------------|------------------------|------------------------|
B|------------------------|------------------------|------------------------|
G|----------7-------------|----9-----7----------5--|----5-----7-------------|
D|----5-----7----7--------|----7-----7----7-----5--|----5-----7----5--5-----|
A|-------0----------0--0--|-------0----------0--3--|----3--0--5----3--2--0--|
E|------------------------|------------------------|------------------------|


E|------------------------|------------------------|------------------------|
B|------------------------|------------------------|------------------------|
G|----9-----7----------5--|----------7-------------|----9-----7----------5--|
D|----7--7--7----7--------|----5----------7--------|----7-----7----7-----5--|
A|------------------0-----|-------0----------0--0--|-------0----------0--3--|
E|------------------------|------------------------|------------------------|


                           

E|------------------------|------------------------|------------------------|
B|------------------------|------------------------|------------------------|
G|----5-----7-------------|----9-----7----------5--|----------7-------------|
D|----5-----7----5--5-----|----7--7--7----7--------|----5----------7--------|
A|----3--0--5----3--2--0--|------------------0-----|-------0----------0--0--|
E|------------------------|------------------------|------------------------|


E|------------------------|------------------------|------------------------|
B|------------------------|------------------------|------------------------|
G|----9-----7----------5--|----5-----7----7--7--7--|-----2-----2---------5--|
D|----7-----7----7-----5--|----5-----7----7--7--7--|-----2-----2---------5--|
A|-------0----------0--3--|----3--0--5----5--5--5--|--x--0-----0---------3--|
E|------------------------|-------0----------------|--------3b--------0-----|


E|----------------------|------------------------|----------------------|
B|----------------------|------------------------|----------------------|
G|---------7----7--7----|-----2-----2---------5--|---------7----7--7----|
D|---------7----7--7----|-----2-----2---------5--|---------7----7--7----|
A|---------5----5--5----|--x--0-----0---------3--|---------5----5--5----|
E|------0---------------|--------3b--------0-----|------0---------------|


E|------------------------|----------------------|---------------------|
B|------------------------|----------------------|---------------------|
G|-----2-----2---------5--|---------7----7--7----|----2-------2--------|
D|-----2-----2---------5--|---------7----7--7----|----2-------2--------|
A|--x--0-----0---------3--|---------5----5--5----|----0-------0--------|
E|--------3b--------0-----|------0---------------|--------3b-----------|


E|--------------------|------------------|---------------------|
B|--------------------|------------------|---------------------|
G|--5--------7--------|------------------|----2-----2----------|
D|--5--------7--------|------------------|----2-----2----------|
A|--3--------5--------|------------------|----0-----0----------|
E|--------------------|------------------|-------3b------------|



Solo:

E|--------------------------|------------5--------|
B|----8--7r-5---------------|------------5--7b-7--|
G|----7--7r----7--5b--------|---------------7b-7--|
D|-------------------7--5/7~|---------------------|
A|--------------------------|---------------------|
E|--------------------------|---------------------|


E|--------------------|------------------------|---------------------------|
B|----------7b--------|------------------------|---------------------------|
G|----------7b---x\---|------------------------|------------2---------7b---|
D|---------------x\---|-----5h7~-----4h5~------|--2h4-----x---4/7~---------|
A|---------------x\---|---x--------x-----------|------3p0------------------|
E|--------------------|------------------------|---------------------------|


                               

E|--------------------------|----------------------------|
B|----8-------8-8--8-8--8-8-|---8-8-------------7---5----|
G|-------7b---9-9--9-9--9-9-|---7b7r------5p0---7---5----|
D|--------------------------|-----------x-----7---7------|
A|--------------------------|----------------------------|
E|--------------------------|----------------------------|


E|--------------------------|------------------------------|
B|------8--------7--7~------|------8~---------10--10~------|
G|--7/9-9-9~---0-7--7~----5-|--7/9-9~----9/11-11--11~----9-|
D|--------------------------|------------------------------|
A|--------------------------|------------------------------|
E|--------------------------|------------------------------|


E|-----------------------------------------------------------|
B|-----13-------13-13-------13-13----------13----13----13----|
G|--14-14-12/14-14-14-13/14-14-14-13-13/14-14-14----14----14-|
D|-----------------------------------------------------------|
A|-----------------------------------------------------------|
E|-----------------------------------------------------------|


E|--12----12------10--10----x-----|--10~-------------------------|
B|--13----13------13b-13b-----x---|--13b---12r---10\---14/15-15~-|
G|-----14-----------------------x-|--------------------13/14-14~-|
D|--------------------------------|------------------------------|
A|--------------------------------|------------------------------|
E|--------------------------------|------------------------------|


E|----------------------------------|------------17--------17-------|
B|----13----15----15~---15~-15\-----|--15--17b---19--17b------17b---|
G|-------14-14-14-------14~-14\-----|-------------------------------|
D|-------------------------------16-|-------------------------------|
A|----------------------------------|-------------------------------|
E|----------------------------------|-------------------------------|


E|--17--17-------------------------|---------------------------17----|
B|--17b-17r-----15h18p15----15\----|--20----20--------20----------20-|
G|-----------------------16-----0--|--19b---19b---19b----19b---------|
D|---------------------------------|---------------------------------|
A|---------------------------------|---------------------------------|
E|---------------------------------|---------------------------------|


E|--------------------------------------17-|
B|--17-----------------------20b-20b-------|
G|-----19r-17----19-17b--------------------|
D|------------19-------19p17---------------|
A|-----------------------------------------|
E|-----------------------------------------|


E|--17-20p17----17----------20b---20b---|
B|-----------20b---20b20p17-------------|
G|--------------------------------------|
D|--------------------------------------|
A|--------------------------------------|
E|--------------------------------------|


E|--17--------------------------------------|
B|-----20p17--------------------------------|
G|-----------19b19----------17~---12/14~14\-|
D|-----------------19-16-19-----------------|
A|------------------------------------------|
E|------------------------------------------|


E|--------------------|
B|----------------19b-|
G|--------------------|
D|--------------------|
A|--------------------|
E|--------------------|


E|----17--------------------|------------------------|----17--------------------|
B|--------------------------|------------------------|--------------------------|
G|--------19b-19~-------17--|--------19~-----19--19b-|--------19b-19~-------17--|
D|--------------------------|------------------------|--------------------------|
A|--------------------------|------------------------|--------------------------|
E|--------------------------|------------------------|--------------------------|


E|------------------------|----17--------------------|----------------------|
B|------------------------|--------------------------|----------------------|
G|--------19~-----19--19b-|--------19b-19~-------17--|--------19~-------19b-|
D|------------------------|--------------------------|----------------------|
A|------------------------|--------------------------|----------------------|
E|------------------------|--------------------------|----------------------|


E|----17--------------------|------------------------|
B|----------------------20\-|------------------------|
G|--------19r---19~---------|------------------------|
D|--------------------------|------------------------|
A|--------------------------|------------------10\---|
E|--------------------------|--------17\-12\---------|


E|-------------------------------|-----------------------------|
B|-------------------------------|-----------------------------|
G|-------------------------------|-----------------------------|
D|-------------------------------|------------10/12~------10---|
A|-------12---10---12~-------12\-|----3----12-----------x------|
E|--0--x----x----x--------0------|-------x---------------------|


E|---------------------------|----------------------------------|
B|----10--10--10-------------|----------------------------------|
G|----12b-12--12b--------17--|------------------17--------------|
D|--------------------x------|----19--17h19---x----19~--19~19\--|
A|---------------------------|----------------------------------|
E|---------------------------|----------------------------------|


E|------------------------------|---17--------17------------------|
B|--x--10--10--10-----------20b-|------17-20b----17--20b---20\----|
G|--x--12b-12--12b---12\--------|-------------------------------0-|
D|------------------------------|---------------------------------|
A|------------------------------|---------------------------------|
E|-----------------------x------|---------------------------------|


E|----------------------17-------------------|
B|----20b--20b--20b--20b---20-17----------20-|
G|-------------------------------19r17-19b---|
D|-------------------------------------------|
A|-------------------------------------------|
E|-------------------------------------------|


E|---------------------------------------|---------------------|
B|---------20-20-20-20-20--------19-17---|--x\-----------------|
G|--19b-------19b19b19b19b-17~---19-17---|--x\-----------------|
D|----------------------------19---------|--x\------7p5--------|
A|---------------------------------------|--x\-----------------|
E|---------------------------------------|---------------------|


E|---------------------||
B|---------------------||
G|----2-----2----------||
D|----2-----2----------||
A|----0-----0----------||
E|-------3b------------||
    Composição: Angus Young / Brian Johnson / Malcolm YoungColaboração e revisão:
    • Caroline
    • Fernando
    • Tiago

    Comentários 41

    140 .
    140 cancelar

    conseguiu tocar?

    • Thais
    • Knupp
    • matheus.eduardo.92351
    • robson
    • Júlia
    • davi
    • João Paulo
    • •••

    covers

    Grave um vídeo tocando Hells Bells e mande pra gente!

    Ex.: http://www.youtube.com/watch?v=0IvSvIwGdwk
    ver covers de outras músicas »
    0:00 / 0:00
    3 versões de baixo exibições contribuição e correção
    1 versão de bateria exibições contribuição e correção
    2 versões de Guitar Proformatodownloadscontribuição
    play/pausefechar subir/descer velocidade
    6ª corda E5ª corda A4ª corda D3ª corda G2ª corda B1ª corda E
      acordes
      publicidad
      fechar
      ok