AC/DC

Jailbreak

77.473 exibições
Tom: E
Riff Principal:


     E5             D5    A5      E5              D5    A5
E|-----------0-----------------|-----------0-----------------|    
B|-----------0------3----------|-----------0------3----------|
G|------------------2-----2----|------------------2-----2----|
D|-0----2h----------0-----2----|-0----2h----------0-----2----|
A|-0----2h----------------0----|-0----2h----------------0----|
E|-0------------X--------------|-0------------X--------------|



      E5              D5    A5      E5              D5    A5
E|-----------0-----------------|-----------0-----------------|    
B|-----------0------3----------|-----------0------3----------|
G|------------------2-----2----|------------------2-----2----|
D|-0----2h----------0-----2----|-0----2h----------0-----2----|
A|-0----2h----------------0----|-0----2h----------------0----|
E|-0------------X--------------|-0------------X--------------|


Verso 1: Riff Principal

     There was a friend of mine on murder
     And the judge's gavel fell
     Jury found him guilty
     
     (Fill 1)
     Gave him sixteen years in hell

Fill 1:


E|----------------------|------------------------|
B|----------------------|------------------------|
G|----------------------|------------------------|
D|----------------------|------------------------|
A|----------------------|------------------------|
E|--0-------------------|--(0)-------------------|


Continua o Riff Principal:

     He said, I ain't spendin' my life here
     I ain't livin' alone
     Ain't breakin no rocks on the chain gang
     I'm breakin' out and headin' home

Ponte: (Riff Principal)

     I'm gonna make a Jailbreak
     And I'm lookin' towards the sky
     I'm gonna make a Jailbreak
     Ah how I wish that I could fly

Pré-Refrão:

    all in the name of liberty

     A5                    D5 D5 D5 D5    A5               D5 D5 D5 D5
E|------------------------------------|-----------------------------------|
B|------------------------3--3--3--3--|-------------------3--3--3--3------|
G|--2---------------------2--2--2--2--|--2----------------2--2--2--2------|
D|--2---------------------0--0--0--0--|--2----------------0--0--0--0------|
A|--0---------------------------------|--0--------------------------------|
E|------------------------------------|-----------------------------------|


    all in the name of liberty                            i got to be free

     B5                    E5 E5 E5 E5    B5               D5 D5 D5 D5
E|------------------------------------|-----------------------------------|
B|------------------------------------|-------------------3--3--3--3------|
G|--4---------------------------------|--4----------------2--2--2--2------|
D|--4---------------------2--2--2--2--|--4----------------0--0--0--0------|
A|--2---------------------2--2--2--2--|--2--------------------------------|
E|------------------------0--0--0--0--|-----------------------------------|


Refrão:


    jail-------------------------break
E|----------------------------|----------------------------|
B|----------------------------|----------------------------|
G|----------------------------|----------------------------|
D|----------------------------|----------------------------|
A|----------------2--5----4---|----------------2--5----4---|
E|--0-----0--3/4--------------|--0-----0--3/4--------------|


                      let me outta here

E|----------------------------|----------------------------|
B|----------------------------|----------------------------|
G|----------------------------|----------------------------|
D|----------------------------|----------------------------|
A|----------------2--5----4---|----------------2--5----4---|
E|--0-----0--3/4--------------|--0-----0--3/4--------------|



    jail-------------------------break
E|----------------------------|----------------------------|
B|----------------------------|----------------------------|
G|----------------------------|----------------------------|
D|----------------------------|----------------------------|
A|----------------2--5----4---|----------------2--5----4---|
E|--0-----0--3/4--------------|--0-----0--3/4--------------|


                      sixteen years

E|----------------------------|----------------------------|
B|----------------------------|----------------------------|
G|----------------------------|----------------------------|
D|----------------------------|----------------------------|
A|----------------2--5----4---|----------------2--5----4---|
E|--0-----0--3/4--------------|--0-----0--3/4--------------|


Riff do Refrão com a Letra:

     Jailbreak
     Had more than I can take
     Jailbreak

    (Fill 2)
     Yeah  

Fill 2:
  

    E5
E|----------------------|------------------------|
B|----------------------|------------------------|
G|----------------------|------------------------|
D|--2-------------------|--(2)-------------------|
A|--2-------------------|--(2)-------------------|
E|--0-------------------|--(0)-------------------|


Verso 2: Riff Principal

     He said he'd seen his lady bein' fooled with
     By another man
     She was down and he was up
     Had a gun in his hand

     Uh...bullets started flyin' everywhere
     N'people started to scream
     Big man lyin' on the ground
     With a hole in his body where his life had been

  but it was all in the name of liberty

     A5                    D5 D5 D5 D5    A5               D5 D5 D5 D5
E|------------------------------------|-----------------------------------|
B|------------------------3--3--3--3--|-------------------3--3--3--3------|
G|--2---------------------2--2--2--2--|--2----------------2--2--2--2------|
D|--2---------------------0--0--0--0--|--2----------------0--0--0--0------|
A|--0---------------------------------|--0--------------------------------|
E|------------------------------------|-----------------------------------|


    all in the name of liberty                            i got to be free

     B5                    E5 E5 E5 E5    B5               D5 D5 D5 D5
E|------------------------------------|-----------------------------------|
B|------------------------------------|-------------------3--3--3--3------|
G|--4---------------------------------|--4----------------2--2--2--2------|
D|--4---------------------2--2--2--2--|--4----------------0--0--0--0------|
A|--2---------------------2--2--2--2--|--2--------------------------------|
E|------------------------0--0--0--0--|-----------------------------------|


refrão:


    jail-------------------------break
E|----------------------------|----------------------------|
B|----------------------------|----------------------------|
G|----------------------------|----------------------------|
D|----------------------------|----------------------------|
A|----------------2--5----4---|----------------2--5----4---|
E|--0-----0--3/4--------------|--0-----0--3/4--------------|

        

E|----------------------------|----------------------------|
B|----------------------------|----------------------------|
G|----------------------------|----------------------------|
D|----------------------------|----------------------------|
A|----------------2--5----4---|----------------2--5----4---|
E|--0-----0--3/4--------------|--0-----0--3/4--------------|



    jail-------------------------break
E|----------------------------|----------------------------|
B|----------------------------|----------------------------|
G|----------------------------|----------------------------|
D|----------------------------|----------------------------|
A|----------------2--5----4---|----------------2--5----4---|
E|--0-----0--3/4--------------|--0-----0--3/4--------------|


    i got to break out                  outta here

                                                   D5   G5
E|----------------------------|----------------------------|
B|----------------------------|-------------------3--------|
G|----------------------------|-------------------2----0---|
D|----------------------------|-------------------0----0---|
A|----------------2--5----4---|----------------2-------X---|
E|--0-----0--3/4--------------|--0-----0--3/4----------3---|


Solo: Junto com o Riff do Pré-Refrão

Interlúdio: 

     Heartbeats...they were racin'
     Freedom...he was chasin'

     Spotlights........Sirens
     Rifles...........Firin'
     But he made it out...

     M'with a bullet in his back

Outro: Riff do Refrão

     Jailbreak
     Jailbreak
     Jailbreak

     Jailbreak
     Jailbreak
     Jailbreak....
    Composição: Angus Young / Bon Scott / Malcolm YoungColaboração e revisão:
    • schmidt

    Comentários 3

    conseguiu tocar?

    • ltor4
    • suen
    • supervinidias
    • shakeman
    • rohhdriigoo123
    • wellx30
    • marceguitarsolo
    • •••
    Gustavo969 visualizações
      ver covers de outras músicas »
      0:00 / 0:00

      Capítulos

        3 versões de violãodificuldadeexibiçõescontribuição e correção
        3 versões de guitarradificuldadeexibiçõescontribuição e correção
        3 versões de cavacodificuldadeexibiçõescontribuição e correção
        3 versões de tecladodificuldadeexibiçõescontribuição e correção
        1 versão de baixoexibiçõescontribuição e correção
        1 versão de Guitar Proformatodownloadscontribuição
        play/pausefechar subir/descer velocidade
        6ª corda E5ª corda A4ª corda D3ª corda G2ª corda B1ª corda E
          acordes
          publicidad
          fechar
          ok