Hail To The King

Avenged Sevenfold

 Avenged Sevenfold
Tom: E
		
Afinação: C#,G#,C#,F#,A#,D#

h = Hammer On
p = Pull Off
/ = Slide
. = Palm-Mute
b = Bend
r = Release
()= Deixar a nota soar

 [Intro]
 (Gtr I)

|-12-0----14-0----15-0------14-0------14-0-------------------------|
|----  12----- 12----- 12-----   12-----   12-12-------------------|
|------------------------------------------------------------------|
|------------------------------------------------------------------|
|------------------------------------------------------------------|
|------------------------------------------------------------------|
|
|-12-0------14-0------15-0------14-0------14-0---------------------|
|----- 12-----   12-----   12-----   12-----   12-12---------------|
|------------------------------------------------------------------|
|------------------------------------------------------------------|
|------------------------------------------------------------------|
|------------------------------------------------------------------|
|                                                                   [00:00~00:50]
|-12-0------14-0------15-0------14-0------14-0---------------------|
|----- 12-----   12----    12----   -12-----   12-12---------------|
|------------------------------------------------------------------|
|------------------------------------------------------------------|
|------------------------------------------------------------------|
|------------------------------------------------------------------|
|
|-17-0------17-0------15-0------15-0------14-0---------------------|
|----  15-----   15-----  -15----    -15----  -15------------------|
|------------------------------------------------------------------|
|------------------------------------------------------------------|
|------------------------------------------------------------------|
|------------------------------------------------------------------|
|
|(Gtr II)
|------------------------------------------------------------------|
|------------------------------------------------------------------|
|------------------------------------------------------------------| (4x)
|------------------------------------------------------------------|
|--2---4---5---2---2-----------------------------------------------|
|--2---4---5---2---2-----------------------------------------------|
|              .   .                                               |
|------------------------------------------------------------------|
|------------------------------------------------------------------|
|------------------------------------------------------------------| (3x)
|------------------------------------------------------------------|
|--2---4---5---2---2------2---2------2---2-------------------------|
|--2---4---5---2---2------2---2------2---2-------------------------|
|              .   .      .   .      .   .                         |
|------------------------------------------------------------------|
|------------------------------------------------------------------|
|------------------------------------------------------------------|
|------------------------------------------------------------------|
|--2---4---5---2--7--7--7--7--7------------------------------------|
|--2---4---5---2--7--7--7--7--7--5--4--0---------------------------|


 [Riff I]
 (Gtr I)

|------------------------------------------------------------------|
|--5h8p5p0--5h8p5p0--5h8p5p0--3h5p3p0------------------------------|
|------------------------------------------------------------------|
|------------------------------------------------------------------|
|------------------------------------------------------------------|
|------------------------------------------------------------------|
|
|------------------------------------------------------------------|
|--5h8p5p0--5h8p5p0--5h8p5p0--3h5p3p0------------------------------|
|------------------------------------------------------------------|
|------------------------------------------------------------------|
|------------------------------------------------------------------|
|------------------------------------------------------------------|
|                                                                  | [00:51~01:08]
|------------------------------------------------------------------|
|--5h8p5p0--5h8p5p0--5h8p5p0--3h5p3p0------------------------------|
|------------------------------------------------------------------|
|------------------------------------------------------------------|
|------------------------------------------------------------------|
|------------------------------------------------------------------|
|                                                                  |
|------------------------------------------------------------------|
|--3h5p3p0--3h5p3p0--3h5p3p0--3h5p3p0------------------------------|
|------------------------------------------------------------------|
|------------------------------------------------------------------|
|------------------------------------------------------------------|
|------------------------------------------------------------------|
|                                                                  |
|(Gtr II)                                                          |
|------------------------------------------------------------------|
|------------------------------------------------------------------|
|------------------------------------------------------------------|
|------------------------------------------------------------------|
|--2---------------5---0---2-------5---0---2-------5---0---2-------|
|--2---------------5---0---2-------5---0---2-------5---0---2-------|
|                                                                  | (2x)
|------------------------------------------------------------------|
|------------------------------------------------------------------|
|------------------------------------------------------------------|
|------------------------------------------------------------------|
|--5---------0-----------------------------------------------------|
|--5---------0-----5--4--0-----------------------------------------|


 [Verso]
 (Gtr I)

|------------------------------------------------------------------|
|--5h8p5p0--5h8p5p0--5h8p5p0--3h5p3p0------------------------------|
|------------------------------------------------------------------|
|------------------------------------------------------------------|
|------------------------------------------------------------------|
|------------------------------------------------------------------|
|                                                                  |
|------------------------------------------------------------------|
|--5h8p5p0--5h8p5p0--5h8p5p0--3h5p3p0------------------------------|
|------------------------------------------------------------------|
|------------------------------------------------------------------|
|------------------------------------------------------------------|
|------------------------------------------------------------------|
|                                                                  | [01:08~01:24]
|------------------------------------------------------------------|
|--5h8p5p0--5h8p5p0----8h10p8p0--8h10p8p0--------------------------|
|------------------------------------------------------------------|
|------------------------------------------------------------------|
|------------------------------------------------------------------|
|------------------------------------------------------------------|
|                                                                  |
|------------------------------------------------------------------|
|--5h8p5p0--5h8p5p0--5h8p5p0--3h5p3p0------------------------------|
|------------------------------------------------------------------|
|------------------------------------------------------------------|
|------------------------------------------------------------------|
|------------------------------------------------------------------|
|                                                                  |
|(Gtr II)                                                          |
|------------------------------------------------------------------|
|------------------------------------------------------------------|
|------------------------------------------------------------------|
|------------------------------------------------------------------|
|--2---2---2---2---2---2---2---2---2---2---2---2---5---0-----------|
|--2---2---2---2---2---2---2---2---2---2---2---2---5---0-----------|
|      .   .   .   .   .   .   .   .   .   .   .                   | (2x)
|------------------------------------------------------------------|
|------------------------------------------------------------------|
|------------------------------------------------------------------|
|------------------------------------------------------------------|
|--2---2---2---2---2---2---2---2---2---2---2---2---0---------------|
|--2---2---2---2---2---2---2---2---2---2---2---2---0---5--4--0-----|

       .   .   .   .   .   .   .   .   .   .   .

 [Pre-Refrão]
 (Gtr I)

|--12-8-------12-8-------12-8--------------------------------------|
|-------10---------10---------10----8-10-8-------------------------|
|----------9----------9----------9---------9-----------------------|
|------------------------------------------------------------------|
|------------------------------------------------------------------|
|------------------------------------------------------------------|
|                                                                  | [01:24~01:30]
|--12-8-----------------12-8---------------------------------------|
|-------10----8-10-8---------10----8-10-8--------------------------|
|----------9---------9----------9---------9------------------------|
|------------------------------------------------------------------|
|------------------------------------------------------------------|
|------------------------------------------------------------------|
|                                                                  |
|(Gtr II)                                                          |
|------------------------------------------------------------------|
|------------------------------------------------------------------|
|------------------------------------------------------------------| (2x)
|------------------------------------------------------------------|
|--7-------10---7-------10---5---7---------------------------------|
|--7-------10---7-------10---5---7---------------------------------|
|                                                                  |
|(Gtr I)                                                           |
|------------------------------------------------------------------|
|--12h15p12p0--12h15p12p0--12h15p12p0--10h12p10p0------------------|
|------------------------------------------------------------------| [01:30~01:38]
|------------------------------------------------------------------|
|------------------------------------------------------------------|
|------------------------------------------------------------------|
|                                                                  |
|(Gtr II)                                                          |
|------------------------------------------------------------------|
|------------------------------------------------------------------|
|------------------------------------------------------------------| (2x)
|------------------------------------------------------------------|
|--9-------12---9-------12---7---9---------------------------------|
|--9-------12---9-------12---7---9---------------------------------|


 [Refrão]
 (Gtr I)

|------------------------------------------------------------------|
|--8---5---7---8---7---(7)------8---5---7---8---7---(7)------------|
|------------------------------------------------------------------| [01:39~01:54]
|------------------------------------------------------------------|
|------------------------------------------------------------------|
|------------------------------------------------------------------|
|                                                                  |
|(Gtr II)                                                          |
|------------------------------------------------------------------|
|------------------------------------------------------------------|
|------------------------------5-------7---------------------------| (2x)
|--2-------0-------------------5-------7---------------------------|
|--2-------0-------------------3-------5---------------------------|
|--2-------0-----5---4---0-------------------5---4---0-------------|




Repetir Tudo [01:55~02:54]
Repeat Intro [02:54~03:01]


 [Solo 1]
 (Gtr I)

|------------------------------------------------------------------|
|--5h8p5p0---5h8p5p0---5h8p5p0----5h8p5p0--------------------------|
|------------------------------------------------------------------|
|------------------------------------------------------------------|
|------------------------------------------------------------------|
|------------------------------------------------------------------|
|                                                                  |
|------------------------------------------------------------------|
|--7h10p7p0----7h10p7p0----4h7p4p0----4h7p4p0----------------------|
|------------------------------------------------------------------|
|------------------------------------------------------------------|
|------------------------------------------------------------------|
|------------------------------------------------------------------|
|                                                                  |
|------------------------------------------------------------------|
|--5h8p5p0---5h8p5p0---5h8p5p0----5h8p5p0--------------------------|
|------------------------------------------------------------------|
|------------------------------------------------------------------|
|------------------------------------------------------------------|
|------------------------------------------------------------------|
|                                                                  | [03:01~03:16]
|------------------------------------------------------------------|
|--7h10p7p0----7h10p7p0----4h7p4p0----4h7p4p0----------------------|
|------------------------------------------------------------------|
|------------------------------------------------------------------|
|------------------------------------------------------------------|
|------------------------------------------------------------------|
|                                                                  |
|------------------------------------------------------------------|
|--5h8p5p0---5h8p5p0---5h8p5p0----5h8p5p0--------------------------|
|------------------------------------------------------------------|
|------------------------------------------------------------------|
|------------------------------------------------------------------|
|------------------------------------------------------------------|
|                                                                  |
|------------------------------------------------------------------|
|--10h13p10p0------10h13p10p0-------7h10p7p0-----7h10p7p0----------|
|------------------------------------------------------------------|
|------------------------------------------------------------------|
|------------------------------------------------------------------|
|------------------------------------------------------------------|
|                                                                  |
|------------------------------------------------------------------|
|--8h12p8p0----8h12p8p0-----7h11p7p0--------7h11p7p0-------12-(12)-|
|------------------------------------------------------------------|
|------------------------------------------------------------------|
|------------------------------------------------------------------|
|------------------------------------------------------------------|
|                                                                  |
|(Gtr II)                                                          |
|------------------------------------------------------------------|
|------------------------------------------------------------------|
|------------------------------------------------------------------|
|--2-------0-----9-------------2-------0------9--------------------|
|--2-------0-----9-------------2-------0------9--------------------|
|--2-------0-----9-------------2-------0------9--------------------|
|                                                                  |
|------------------------------------------------------------------|
|------------------------------------------------------------------|
|------------------------------------------------------------------|
|--2-------0-------7-------4------5-------4------9-----------------|
|--2-------0-------7-------4------5-------4------9-----------------|
|--2-------0-------7-------4------5-------4------9-----------------|


 [Solo 2]
 (Gtr I)

|------------------------------------------------------------------|
|-------------------------5--7/13--13---12--10~-----12--13--10~----|
|-----------/11---9---8--------------------------------------------|
|-/9---8h9---------------------------------------------------------|
|------------------------------------------------------------------|
|------------------------------------------------------------------|
|                                                                  |
|---------11b(12121212)~------11~-----11--12--14--11~--------------|
|-12--13-----------------------------------------------------------|
|------------------------------------------------------------------|
|------------------------------------------------------------------|
|------------------------------------------------------------------|
|------------------------------------------------------------------|
|                                                                  |
|-12--14--14/20--17--15-----------19--20--17--19--20--17--19~------|
|------------------------17~---------------------------------------|
|------------------------------------------------------------------|
|------------------------------------------------------------------|
|------------------------------------------------------------------|
|------------------------------------------------------------------|
|                                                                  |
|---------------------------12--14b15-14--12-----------------------|
|-------------------------12---------------------------------------|
|--------------9--11--12-------------------------------------------|
|-----------9------------------------------------------------------|
|-7--9--10---------------------------------------------------------|
|------------------------------------------------------------------|
|                                                                  |
|-11-14-12-11------------------------------------------------------|
|-------------10-7-10-8-7------------------------------------------|
|-------------------------9-8~-------------------------------------|
|------------------------------------------------------------------|
|------------------------------------------------------------------|
|------------------------------------------------------------------|
|                                                                  | [03:17~03:51]
|-------12-17-12-------12-16-12-------12-15-12-------12-14-12------|
|----13-------------13-------------13-------------13---------------|
|-14-------------14-------------14-------------14------------------|
|------------------------------------------------------------------|
|------------------------------------------------------------------|
|------------------------------------------------------------------|
|                                                                  |
|-14-15-14-12------------------------------------------------------|
|-------------8-7-5-8-7-5------------------------------------------|
|------------------------------------------------------------------|
|-------------------------5-4-2~-----------------------------------|
|------------------------------------------------------------------|
|------------------------------------------------------------------|
|                                                                  |
|-----------------------------7-8-11--12-7-------------------------|
|----------------------7-8-10--------------8-7---------------------|
|--------------------8-------------------------9-------------------|
|--------------7-8-9-----------------------------9-----------------|
|----------6-9-------------------------------------10-9-7~---------|
|-9-10-7-9---------------------------------------------------------|
|                                                                  |
|------------------------------------------------------------------|
|----8--7------------------------------------------------(10r8)----|
|-9--------9--8----------------------------------------------------|
|----------------10--9--7------------------------------------------|
|--------------------------10--9--7--6-----------------------------|
|---------------------------------------10--9---(7b11)-------------|
|                                                                  |
|(Gtr II)                                                          |
|------------------------------------------------------------------|
|------------------------------------------------------------------|
|------------------------------------------------------------------|
|--2---------------------------9-----------------------------------|
|--2---2---2---2---2---2---2---9---9---9---9---9---9---9-----------|
|--2---2---2---2---2---2---2---9---9---9---9---9---9---9-----------|
|      .   .   .   .   .   .	   .   .   .   .   .   .           |
|------------------------------------------------------------------|
|------------------------------------------------------------------|
|------------------------------------------------------------------|
|--7---------------------------2-----------------------------------|
|--7---7---7---7---7---7---7---2---2---2---2---2---2---2-----------|
|--7---7---7---7---7---7---7---2---2---2---2---2---2---2-----------|
|      .   .   .   .   .   .	   .   .   .   .   .   .           | (2x)
|------------------------------------------------------------------|
|------------------------------------------------------------------|
|------------------------------------------------------------------|
|--2---------------------------9-----------------------------------|
|--2---2---2---2---2---2---2---9---9---9---9---9---9---9-----------|
|--2---2---2---2---2---2---2---9---9---9---9---9---9---9-----------|
|      .   .   .   .   .   .	   .   .   .   .   .   .           |
|------------------------------------------------------------------|
|------------------------------------------------------------------|
|------------------------------------------------------------------|
|--7---------------------------2-----------------------------------|
|--7---7---7---7---7---7---7---2---2---2---2---2---2---2-----------|
|--7---7---7---7---7---7---7---2---2---2---2---2---2---2-----------|

       .   .   .   .   .   .	   .   .   .   .   .   .


Repetir Intro (Como Guitarra 2) [03:51~04:15]
Repetir Refrão [04:16~04:48]

Repetir Intro [04:48~FIM]
Texto Colunas
Alterar tom ½ tom ½ tom
afinação acordes na letra esconder tabs mais »

Comentários 36

  • Caio Caio: Postado em 06/05/2014 15:35

    Por favor faz vídeo aula dessa música!!

  • hernanicd hernanicd: Postado em 05/05/2014 21:05

    Vo tenta arruma ela , se puderem me dizer a afinação original ja ajuda

  • Rodrigo Rodrigo: Postado em 03/05/2014 12:47

    Gente Vocês estão ligado que a afinação é Dropada em C# e não Eb

  • Lucas Lucas: Postado em 25/02/2014 21:45

    eu sei que a música e de guitarra mas nao tem nenhuma posiçao que encaixa como base pra violão se alguem souber me responde ae

    • Victor Victor: Postado em 02/03/2014 15:11

      n e querendo me achar n mas sou quase profissional e nao entendi direito nada q ta ai em cima

  • thalya thalya: Postado em 31/01/2014 18:35

    agora esta certo..

  • thalya thalya: Postado em 30/01/2014 19:36

    Ta tudo errado eu enviei mas nao colocaram.

  • henryque.calvo henryque.calvo: Postado em 24/01/2014 00:09

    Uma video aula seria mto bom

    • jonatas jonatas: Postado em 12/03/2014 11:26

      a video aula acaba se tornando melhor, pois o professor dá dicas mas, é importante entender a tablatura, pois é um meio muito prático, porém

  • rickson.joeyne rickson.joeyne: Postado em 17/01/2014 02:31

    easy

Exibindo 10 de 36 comentários Mostrar mais ver todos »
Composição: Matt Shadows
Esse não é o compositor? Avise-nos.
Contribuição: ciinhuuroox Correções: Rodrigo e mais 2 »
  1. Domingo de Manhã - Marcos e Belutti Manteve-se 100.564 exibições
  2. Maus Bocados - Cristiano Araújo Manteve-se 44.110 exibições
  3. Recaídas - Henrique e Juliano Manteve-se 41.555 exibições
  4. Logo Eu - Jorge e Mateus Manteve-se 40.930 exibições
  5. Pra Você - Onze:20 Manteve-se 37.540 exibições
  6. Não Vai Voltar - Onze:20 Manteve-se 31.765 exibições
  7. Mulher - Projota Manteve-se 30.992 exibições
  8. Só Os Loucos Sabem - Charlie Brown Jr. Manteve-se 30.145 exibições
  9. Calma - Jorge e Mateus Manteve-se 26.500 exibições
  10. Pais e Filhos - Legião Urbana Manteve-se 25.915 exibições
  1. Jorge e Mateus- Manteve-se 276.847 exibições
  2. Legião Urbana- Manteve-se 207.235 exibições
  3. Charlie Brown Jr.- Manteve-se 146.346 exibições
  4. Marcos e Belutti- Manteve-se 124.646 exibições
  5. Fernandinho- Manteve-se 118.123 exibições
  6. Henrique e Juliano- Manteve-se 105.885 exibições
  7. Bruno e Marrone- Manteve-se 100.989 exibições
  8. Luan Santana- Manteve-se 91.274 exibições
  9. Onze:20- Manteve-se 90.389 exibições
  10. Thalles Roberto- Manteve-se 89.499 exibições
Exibir acordes »

Cifras e tabs

Fórum Cifra Club

Aprenda

Cifra Club News

Mais Serviços Cifra Club ID

Studio Sol

©1996 - 2014 Cifra Club · o primeiro, maior e mais acessado do Brasil · 335 mil músicas · 6.1 milhões pessoas cadastradas

publicidade
fechar