Chuva No Telhado

César Menotti e Fabiano

 César Menotti e Fabiano
Tom: A
		

e|------------------------------------2----0-2-0------------   
B|-2---2------0-0-2-3-2-0-2-----2--------3-------3---2---2--    
G|---2---2-------------------2----2--------------------2---2                         
D|------------------------4-----4-----0--0-0-0-0-0----------    
A|-0-0-0-0------2-2-2-2-2----2----2------------------0-0-0-0   
E|------------0--------------------------------------------- 



e|------------------------------------2----0-2-0------------               ------  
B|-2---2------0-0-2-3-2-0-2-----2--------3-------3---2---2--               --0---
G|---2---2-------------------2----2--------------------2---2 e pra terminar------
D|------------------------4-----4-----0--0-0-0-0-0----------               ------
A|-0-0-0-0------2-2-2-2-2----2----2------------------0-0-0-0               ------
E|------------0---------------------------------------------               --0---

"faça este solinho do jeito que está na tab, auvoce o executará no ritmo certo."

  A                 E7
Chuva no telhado, vento no portão
  D                 A      E7
E eu aqui nesta solidão
  A                   E7 
Fecho a janela, tá frio o nosso quarto
    D                   A        A7
E eu aqui sem o teu abraço
  D                    E7
Doido pra sentir seu cheiro
  C#7                 F#m
Doido pra sentir seu gosto
  D                    E7            D
Louco pra beijar seu beijo matar a saudade
       E7      A
E esse meu desejo
D                   E7    C#7            F#m
Vê se não demora muito, coração tá reclamando
   D                   E7          D
Traga logo o seu carinho, tô aqui sozinho
     E7      A
Tô te esperando
  E7          A       E7             F#m
Quando você chegar, tire essa roupa molhada
  D            A   E7              A   E7
Quero ser a tolha      e o seu cobertor
                A     E7              F#m
Quando você chegar, mando a saudade sair
  D        A           E7               D   E7
Vai trovejar  vai cair um temporal de amor
                D    A
Um temporal de amor
121.086 exibições

Comentários 0

Exibir acordes »
publicidade
fechar