Cifra Club

Chuva No Telhado

César Menotti e Fabiano

Cifra: Principal
exibições 168.734
Tom: A
[Intro]

E|------------------------------------2----0-2-0------------|   
B|-2---2------0-0-2-3-2-0-2-----2--------3-------3---2---2--|    
G|---2---2-------------------2----2--------------------2---2|                         
D|------------------------4-----4-----0--0-0-0-0-0----------|    
A|-0-0-0-0------2-2-2-2-2----2----2------------------0-0-0-0|   
E|------------0---------------------------------------------|

E|------------------------------------2----0-2-0------------|                 
B|-2---2------0-0-2-3-2-0-2-----2--------3-------3---2---2--|               
G|---2---2-------------------2----2--------------------2---2| 
D|------------------------4-----4-----0--0-0-0-0-0----------|               
A|-0-0-0-0------2-2-2-2-2----2----2------------------0-0-0-0|               
E|------------0---------------------------------------------|             

  A                E7
Chuva no telhado, vento no portão
  D                  A  E7
E eu aqui nesta solidão
 A                   E7
Fecho a janela, tá frio o nosso quarto
  D                 A    A7
E eu aqui sem o teu abraço
 D                     E7
Doido pra sentir seu cheiro
 C#7                  F#m
Doido pra sentir seu gosto
 D                    E7            D
Louco pra beijar seu beijo matar a saudade
        E7      A
E esse meu desejo
 D                E7     C#7           F#m
Vê se não demora muito, coração tá reclamando
  D                 E7          D
Traga logo o seu carinho, tô aqui sozinho
      E7      A
Tô te esperando
  E7          A      E7              F#m
Quando você chegar, tire essa roupa molhada
  D          A    E7              A   E7
Quero ser a tolha   e o seu cobertor
                A    E7              F#m
Quando você chegar, mando a saudade sair
 D        A        E7               D   E7
Vai trovejar  vai cair um temporal de amor
               D    A
Um temporal de amor
Acordes para:
    Colaboração e revisão:
    • Marcos Paulo
    • Meire Pinheiro

    0 comentários

      mostrar mais comentários

      Conseguiu tocar?

      3tocaram0ainda não

      Grave um vídeo tocando Chuva No Telhado e mande pra gente!

      00:00 / 00:00
      outros vídeos desta música
      repetirqualidadeautomática
      Outro vídeos desta música
        00:00 / 00:00
        automática
        OK