Sem Você (É foda!)

Engenheiros do Hawaii

 Engenheiros do Hawaii
Tom: C
		
Introdução: (Am Em F C G) 2x


e|--------------------------------|
B|--------------------------------|
G|--------------------------------|
D|--------------------------------|
A|--3-2-0-2------3-2-0-2-3--------|
E|----------0-1------------3-5----|



e|--------------------------------|
B|--------------------------------|
G|--------------------------------|
D|--------------------------------|
A|--3-2-0-2------3-2-0-2-3--------|
E|----------0-1------------3------|


Am          Em
Um calor do cão
F             C  G
Um frio de rachar
Am          Em        F           C  G
Tudo aqui parece estar fora do lugar
Am       Em F                 C  G
Uma sensação difícil de explicar
Am          Em        F           C  G
Tudo aqui parece estar fora do lugar
  G#
O dia, a noite
             G      C   G C
Terra, fogo, água e ar
 G#                           G
Sem você fica tudo fora do lugar

Am              Em F                       C  G
A bandeira tricolor na sacada em frente ao mar
Am             Em F               C  G
A caça e o caçador saindo pra jantar
  Am            Em F              C G
A fila do cinema, o sistema fora do ar
Am          Em        F           C  G
Tudo aqui parece estar fora do lugar
G#
O sul, o norte
             G      C  G C
Terra, fogo, água e ar
G#                            G
sem você tudo fica fora do lugar

solo: Am Em F C G

G#                            G
sem você tudo fica fora do lugar
 F                            G
fora de foco, difícil de enxergar
G#                            G
sem você tudo fica fora do lugar
 F                      G          (Am Em F C G) Am
fora de si...foda de se aguentar
50.550 exibições

Comentários 0

Composição: Humberto Gessinger / Mike Nolan
Esse não é o compositor? Avise-nos.
Contribuição: Allison Correções: dudu »
Exibir acordes »
publicidade
fechar