My Michelle

Guns N' Roses

 Guns N' Roses
Tom: G
		
(intro) C# C B F#

(riff 1) C# C B F# A E F# C# C B F#

C#                    C B
Your daddy works in porno
F#                      A E F#
Now that mommy's not around
C#                    C B
She used to love her heroin
C#                D C#
But now she's underground
C#                    C B
So you stay out late at night
F#                      A E F#
And you do your coke for free
C#                    C B
Drivin' your friends crazy
F#                      A E F#
With your life's insanity

(refrão)
D     A     B      C#            A
Well, well, well you just can't tell
D     C#    B    A
Well, well, well my Michelle

Look out!

(riff 1)

C#                    C B
Sowin' all your wild oats
F#               A E F#
In another's luxuries
C#                 C B
Yesterday was Tuesday
C#                     D C#
Maybe Thursday you can sleep
C#                       C B
But school starts much too early
F#                      A E F#
And this hotel wasn't free
C#                        C B
So party till your connection calls
F#                    A E F#
Honey I'll return the key

(refrão 2x)

E           D A
Everyone needs love
B                  G E
You know that it's true
E                G   B
Someday you'll find someone
B
That'll fall in love with you
E           D A
But oh the time it takes
B                  G E
When you're all alone
E                G   B
Someday you'll find someone
B
That you can call your own

But till then ya better...

(solo)

|---------------------------------7---7--------------7--------------|
|-16hb-16hb-16-16---------------7---7----10fb~~~~~~~---10p9-9b(1½)--|
|-16fb-16fb-16-16p14----14----------------------------------9b(1½)--|
|--------------------16----16~~-------------------------------------|
|-------------------------------------------------------------------|
|-------------------------------------------------------------------|



|-7--------------7------------0-----------------------------------------|
|---10-------------10-----------0---------------------------------------|
|------r9(3/4)--------r9(3/4)-------------------------------------------|
|-----------------------------------------------------------------7-----|
|-----------------------------------10b(2)rb(2)rb(2)rb(2)r~~~-7fb---7fb-|
|-----------------------------------------------------------------------|



|-------------------------------------------------------------------|
|-------------------------------------------------------------------|
|-------------------------------------------------------------------|
|-----------------------------------------0---5fbr--5--5--(5)~~~~~~-|
|-7-5----------------------------2---4hb----------------------------|
|-----7--5-4-3---3fb--3~~~~-5fb----5--------------------------------|


C#               C B
Now you're clean
F#               A E F#
And so discreet
C#               C B
I won't say a word
F#                          A E F#
But most of all this song is true
C#                   C B
Case you haven't heard
F#                          A E F#
So c'mon and stop your cryin'
C#                         C B
'Cause we both know money burns
F#                    A E F#
Honey don't stop tryin;
F#                          A E F#
An you'll get what you deserve

(refrão x2)

yeah
A          C
my my my Michelle
A          C
my my my Michelle
A          C
m m m m my my Michelle
A          C
my my my my Michelle
    A
Michelle

Comentários 0

Composição: Leo Kottke / Mariella Nava
Esse não é o compositor? Avise-nos.
Contribuição: seubruno
Exibir acordes »
publicidade
fechar