Knockin' On Heaven's Door

Guns N' Roses

 Guns N' Roses
Tom: G
		
(afinação da guitarra 1/2 tom abaixo)
E|--> eb
B|--> Bb
G|--> Gb
D|--> Db
A|--> Ab
E|--> Eb

(intro)

(parte 1)

E|-3-3-------------2-0-------|
B|-3---3---3-----3-----3---3-|
G|-0-----0-----2---------2---|
D|-0---------0---------------|
A|-2-------------------------|
E|-3-------------------------|


(parte 2)

E|---------------0-------------------|
B|---------1----------1--------------|
G|-0-----0---0------0---0-0-----0----|
D|-0h2---------2--2-------0h2--------|
A|-----3----------------------3------|
E|-----------------------------------|


(parte 3)

E|---3-------------2-0-------|
B|-----3---3-----3-----3---0-|
G|-------0-----2---------2---|
D|-0---------0---------------|
A|-2-------------------------|
E|-3-------------------------|


(parte 4)

E|-----------------------------|
B|-----1-------1---1-----1-----|
G|---0---0-------0---0-----0---|
D|---------2-----------2-----2-|
A|-3---------3-----------------|
E|-----------------------------|


(ritmo especial pra power chords)

(parte 1)  G5  D5  C5 : ↓

(parte 2)  C5: ↓↓xx ↓↓x xx

(primeira parte)

(partes 1)

       G          D
E|-3--3-------------2-0-------|
B|-3----3---3-----3-----3---0-|
G|-0------0-----2---------2---|
D|-0----------0---------------|
A|-2--------------------------|
E|-3--------------------------|


 (parte 2)
       Am

E|-------------0-----------------|
B|-----0h1---------1-------------|
G|---2-----2-----2---2---0---0---|
D|-----------2---------2---2-----|
A|-0-----------------------------|
E|-------------------------------|


(parte 3)

       G          D
E|-3--3-------------2-0-------|
B|-3----3---3-----3-----3---0-|
G|-0------0-----2---------2---|
D|-0----------0---------------|
A|-2--------------------------|
E|-3--------------------------|


 (parte 4)

       C
E|-------------------------------|
B|-----1---------1---------------|
G|---0---0-----0---0-------------|
D|---------2----------2---0------|
A|-3---------3----------3--------|
E|-------------------------------|


G        D                    Am
  Mama, take this badge from me
G         D          C
  I can't use it anymore
G                   D              C
  It's getting dark  too dark to see
G                  D                   C
  Feels like I'm knockin' on heaven's door

(refrão) G5 D5 C5
(ritmo - como foi ensinado na segunda parte da intro)


G5             D5                  C5
 Knock-knock-knockin' on heaven's door


G5             D5                  C5
 Knock-knock-knockin' on heaven's door


G5             D5                  C5
 Knock-knock-knockin' on heaven's door


G5             D5                  C5
 Knock-knock-knockin' on heaven's door


(base do primeiro solo) G D  C

(solo 1)

 (parte 1)

E|----------------------------------------------------|
B|-------------------15-------------------------------|
G|-12-14b16r14p12-14----14b16r14p12-12~---------------|
D|----------------------------------------------------|
A|----------------------------------------------------|
E|----------------------------------------------------|



E|--------------------|
B|----------15/17-15--|
G|-------12-----------|
D|-12/14--------------|
A|--------------------|
E|--------------------|


 (parte 2)

E|---------------------------------15-------------15--|
B|-13p12-13b15-13p12-13p12---12-13----13-12-15/17-----|
G|-------------------------14-------------------------|
D|----------------------------------------------------|
A|----------------------------------------------------|
E|----------------------------------------------------|



E|-17b19-17-17b19-17b19-15~---------------------------|
B|----------------------------------------------------|
G|----------------------------------------------------|
D|----------------------------------------------------|
A|----------------------------------------------------|
E|----------------------------------------------------|


 (parte 3)

E|-20b22-20p19-20-19-20b22-20p19-20-20----------------|
B|-------------------------------------17-------------|
G|----------------------------------------------------|
D|----------------------------------------------------|
A|----------------------------------------------------|
E|----------------------------------------------------|



E|----------------------------------15----------------|
B|-15b17r15b17r15-------------------------------------|
G|----------------14b16r14b16r14p12-------------------|
D|----------------------------------------------------|
A|----------------------------------------------------|
E|----------------------------------------------------|


(repete a primeira parte, cantando essa letra junto)

Mama, put my guns in the ground
I can't shoot them anymore
That cold black cloud is coming down
Feels like I'm knockin' on heaven's door

(refrão)

(solo 2) G5 D5 C5

(parte 1)

E|----------10-14b15r14-14-14b15r14-12-14p12----|
B|-13----13-------------------------------------|
G|----12----------------------------------------|
D|----------------------------------------------|
A|----------------------------------------------|
E|----------------------------------------------|


(parte 2)

E|----------15------15-------------------|
B|-15b17-17----15b17----17r15-13-15------|
G|---------------------------------14b16-|
D|---------------------------------------|
A|---------------------------------------|
E|---------------------------------------|



E|-15---------------15-------------------|
B|---15----------15----15-15----15-------|
G|------16r14p12-14-------14b16-14b16-12-|
D|---------------------------------------|
A|---------------------------------------|
E|---------------------------------------|


(parte 3)

E|-------------------------------------20-19-20-20b22-|
B|----------20----22b24-24r22p20-22-20----------------|
G|-------19----19-------------------------------------|
D|-19/21----------------------------------------------|
A|----------------------------------------------------|
E|----------------------------------------------------|



E|-20-19-20-20b22-20-19-20-22b24-22b24r22----------22-|
B|----------------------------------------20-22b24----|
G|----------------------------------------------------|
D|----------------------------------------------------|
A|----------------------------------------------------|
E|----------------------------------------------------|



E|-------------------------------|
B|-24r22-20-22-24r22-20-22-20----|
G|-------------------------------|
D|-------------------------------|
A|-------------------------------|
E|-------------------------------|


(parte 4)

E|-----------------------------------15----15-------|
B|-19b20-20-19~-19b20r19-17-19p17-17----17----17-15-|
G|--------------------------------------------------|
D|--------------------------------------------------|
A|--------------------------------------------------|
E|--------------------------------------------------|



E|-------------------------|
B|-13-15-12b13r12-12b13r12-|
G|-------------------------|
D|-------------------------|
A|-------------------------|
E|-------------------------|


(parte 5)

E|------------------------------|
B|------------------------------|
G|-12-11-11b12r11p9-9\7-5\4-----|
D|--------------------------5~\-|
A|------------------------------|
E|------------------------------|


(segunda parte)
(ritmo - começar tocando duas vezes pra baixo em cada power chord)

( G5 D5 C5 )

(segue fazendo variações no power chord de C )
(sugestões)
   ↓ xx ↓↓ xx     ↓ x xx ↓↓

(letra)

Knock-knock-knockin' on heaven's door
Knock-knock-knockin' on heaven's door
Knock-knock-knockin' on heaven's door
Knock-knock-knockin' on heaven's door
Texto Colunas
Alterar tom ½ tom ½ tom
afinação acordes na letra esconder tabs mais »

Comentários 138

  • Homer Homer: Postado em 09/09/2014 17:54

    seria legal se mostrasse sobre quais escalas o solo é feito

  • Alef Alef: Postado em 24/08/2014 12:15

    Eles falaram errado no solo falaram décima quarta casa de D mais na tab do video tá de G

  • daniel daniel: Postado em 08/07/2014 15:17

    essa musica e muito foda mais nao ta completa

  • junior junior: Postado em 09/06/2014 18:45

    musica facil

  • Vinicius Vinicius: Postado em 23/05/2014 16:56

    meu violao é horrivel , n tem a entrada pra fazer solo ¬¬ , mas aprendi facil pelomenos

  • Henrique Henrique: Postado em 04/05/2014 12:48

    Alguém sabe fazer a variação no refrão? Isso é em C5, o Slash faz na gravação em estúdio da musica.

  • lukewilkshire.lukwill lukewilkshire.lukwill: Postado em 23/03/2014 19:45

    Muito foda essa música

  • pinguin pinguin: Postado em 16/03/2014 13:49

    primeiro som que tentei aprender sem saber nada de violão ou guitarra, aprendi. Fofão vc é o cara ;)

Exibindo 10 de 138 comentários Mostrar mais ver todos »
Composição: Gurewitz / Irwin Levine / Túlio Mourão
Esse não é o compositor? Avise-nos.
Contribuição: SoulX Correções: rdrummond , Guilherme e mais 10 »
  1. Até Você Voltar - Henrique e Juliano Manteve-se 88.313 exibições
  2. Domingo de Manhã - Marcos e Belutti Manteve-se 75.830 exibições
  3. Cuida Bem Dela - Henrique e Juliano Manteve-se 51.562 exibições
  4. Diz Pra Mim - Banda Malta Manteve-se 43.920 exibições
  5. Raridade - Anderson Freire Manteve-se 42.362 exibições
  6. Recaídas - Henrique e Juliano Manteve-se 40.795 exibições
  7. Só Os Loucos Sabem - Charlie Brown Jr. Manteve-se 30.249 exibições
  8. Pra Você - Onze:20 Manteve-se 29.620 exibições
  9. Tudo Que Você Quiser - Luan Santana Manteve-se 27.139 exibições
  10. Logo Eu - Jorge e Mateus Manteve-se 26.801 exibições
  1. Henrique e Juliano- Manteve-se 272.036 exibições
  2. Jorge e Mateus- Manteve-se 216.930 exibições
  3. Legião Urbana- Manteve-se 197.496 exibições
  4. Charlie Brown Jr.- Manteve-se 145.021 exibições
  5. Fernandinho- Manteve-se 116.835 exibições
  6. Bruno e Marrone- Manteve-se 114.776 exibições
  7. Luan Santana- Manteve-se 113.632 exibições
  8. Marcos e Belutti- Manteve-se 93.473 exibições
  9. Thalles Roberto- Manteve-se 91.835 exibições
  10. Victor e Leo- Manteve-se 90.054 exibições
Exibir acordes »

Cifras e tabs

Fórum Cifra Club

Aprenda

Cifra Club News

Mais Serviços Cifra Club ID

Studio Sol

©1996 - 2014 Cifra Club · o primeiro, maior e mais acessado do Brasil · 341 mil músicas · 6.3 milhões pessoas cadastradas

publicidade
fechar