Oh My God

Guns N' Roses

 Guns N' Roses Compositor: Guns N' Roses
Tom: E
		
(Eb Ab Db Gb Bb Eb)  
 
Introdução 
 
 
  I 

|-------------------|------------------| 
|-------------------|------------------| 
|---------------2---|------4-----------| 
|-------4-----3---3-|----5---5---/3--5-| 
|----5----5-3-------|--5---------------| 
|--0----------------|------------------| 

| 
 II 
 

|-------------------|------------------| 
|-------------------|------------------| 
|-------------------|------------------| 
|-------------------|------------/3--5-| 
|------/5---3-------|-/5---3-----------| 
|--0----------0---0-|--------0---------| 

 
 

|------------------|-------------------| 
|------------------|-------------------| 
|--------------2---|------4------------| 
|------4-----3---3-|----5---5---/5--7--| 
|---5----5-3-------|--5----------------| 
|-0----------------|-------------------| 

| 
 

|------------------|-------------------| 
|------------------|-------------------| 
|------------------|-------------------| 
|------------------|------------/5--7--| 
|-----/5---3-------|-/5---3------------| 
|-0----------0---0-|--------0----------| 

                         
  Gtr II      

|----------------|-------------| 
|----------------|-------------| 
|---------2------|-(2)---------| 
|---------2------|-(2)---------| 
|---------0------|-(0)---------| 
|----------------|-------------| 

| 
 

|-----5-------5--|-(5)---------| 
|---5---5---5----|----------5--| 
|-8-------7------|-------------| 
|----------------|-------------| 
|----------------|-------------| 
|----------------|-------------| 

 
 
   < 
                    ~~~ 

|----------------|-----------------------------| 
|-20-------------|-19-----(19)-----------------| 
|----------------|-------------18b19==(18)r====| 
|----------------|-----------------------------| 
|----------------|-----------------------------| 
|----------------|-----------------------------| 

| 
 

|-------5-(5)----|-(5)-------------------------| 
|--8-------------|-----------------------------| 
|----------------|-----------------------------| 
|----------------|-----------------------------| 
|----------------|-----------------------------| 
|----------------|-----------------------------| 

                                   
 
    ~~~~ 

|---------------------|--------------------------------| 
|---------------------|-20-----------------------------| 
|-(18)----------------|------18---------18b19====(18)r-| 
|-------------19------|---------17-(17)----------------| 
|---------------------|--------------------------------| 
|---------------------|--------------------------------| 

| 
 

|---------------------|--------------------------------| 
|---------------------|--------------------------------| 
|--------2------------|-(2)----------------------------| 
|--------2------------|-(2)----------------------------| 
|--------0------------|-(0)----------------------------| 
|---------------------|--------------------------------| 

 
 
   <                                                                         < 
|-------------------------------------------------|------------------------------------------|| 
|-20----------------------------------------------|-19----------------------20b22=====(20)r--|| 
|-------------------------------------------------|------------------------------------------|| 
|-------------------------------------------------|------------------------------------------|| 
|-------------------------------------------------|------------------------------------------|| 
|-------------------------------------------------|------------------------------------------|| 
| 
|  < 
|-------------------------------------------------|------------------------------------------|| 
|-14b15=(14)r-14b15=(14)r-14b15=(14)r-14b15=(14)r-|-14b15=(14)r-14b15=(14)r-14s====17--------|| 
|-------------------------------------------------|------------------------------------------|| 
|-------------------------------------------------|------------------------------------17\---|| 
|-------------------------------------------------|------------------------------------------|| 
|-------------------------------------------------|------------------------------------------|| 
 
 
 
    gtr iv 

||---------------------------------------------|------------------------| 
||o--------------------------------------------|------------------------| 
||-----4-(4)-5-{5}-{5}-{5}-{5}-{5}-{5}-{5}-{5}-|----4-(4)-5-4s5--4-(4)--| 
||--4--4-(4)-5---------------------------------|-4--4-(4)-5-4s5--4-(4)-5| 
||o-4--2-(2)-3---------------------------------|-4--2-(2)-3-2s3--2-(2)-5| 
||--2------------------------------------------|-2---------------------3| 

 
 

|--------------------------------------------|-------------------------| 
|--------------------------------------------|-------------------------| 
|----4-(4)-5-{5}-{5}-{5}-{5}-{5}-{5}-{5}-{5}-|----4-(4)-5-4s5--4-(4)---| 
|-4--4-(4)-5---------------------------------|-4--4-(4)-5-4s5--4-(4)-5-| 
|-4--2-(2)-3---------------------------------|-4--2-(2)-3-2s3--2-(2)-5-| 
|-2------------------------------------------|-2---------------------3-| 

 
 
  pm|   pm|   pm|   pm|     pm|   pm| 

|-------------------------|------------------------| 
|-------------------------|------------------------| 
|-------------------------|-------------5--4-(4)---| 
|-----2-----2-----2-----2-|-----2-----2-5--4-(4)-5-| 
|-0-0---0-0---0-0---0-0---|-0-0---0-0---3--2-(2)-5-| 
|-------------------------|----------------------3-| 

 

|--------------------------------------------|-------------------------| 
|--------------------------------------------|-------------------------| 
|----4-(4)-5-{5}-{5}-{5}-{5}-{5}-{5}-{5}-{5}-|----4-(4)-5-4s5--4-(4)---| 
|-4--4-(4)-5---------------------------------|-4--4-(4)-5-4s5--4-(4)-5-| 
|-4--2-(2)-3---------------------------------|-4--2-(2)-3-2s3--2-(2)-5-| 
|-2--2-(2)-3---------------------------------|-2--2-(2)-3-2s3--2-(2)-3-| 

 

|--------------------------------------------|-------------------------| 
|--------------------------------------------|-------------------------| 
|----4-(4)-5-{5}-{5}-{5}-{5}-{5}-{5}-{5}-{5}-|----4-(4)-5-4s5--4-(4)---| 
|-4--4-(4)-5---------------------------------|-4--4-(4)-5-4s5--4-(4)-5-| 
|-4--2-(2)-3---------------------------------|-4--2-(2)-3-2s3--2-(2)-5-| 
|-2--2-(2)-3---------------------------------|-2--2-(2)-3-2s3--2-(2)-3-| 

 
 
  pm|   pm|   pm|   pm|     pm|   pm| 

|-------------------------|------------------------| 
|-------------------------|------------------------| 
|-------------------------|-------------5--4-(4)---| 
|-----2-----2-----2-----2-|-----2-----2-5--4-(4)-5-| 
|-0-0---0-0---0-0---0-0---|-0-0---0-0---3--2-(2)-5-| 
|-------------------------|----------------------3-| 

 
 

|-------------------|-------------------|-------------------|| 
|------{5}-({5})----|------{5}-({5})----|------{5}-({5})----|| 
|-------------------|-------------------|-------------------|| 
|-4-4---------------|-4-4---------------|-4-4---------------|| 
|-4-4---------------|-4-4---------------|-4-4---------------|| 
|-2-2---------------|-2-2---------------|-2-2---------------|| 

                     
 

|-----------------|----------------|-----------------| 
|-----------------|----------------|-----------------| 
|-----5-4-----5-4-|-----5-4---5--4-|-----5-4-----5-4-| 
|-----5-4-----5-4-|-----5-4---5--4-|-----5-4-----5-4-| 
|-----------------|----------------|-----------------| 
|-2-2-----2-2-----|-2-2-----2------|-2-2-----2-2-----| 

 
 
 

|----------------|-----------------|----------------| 
|----------------|-----------------|----------------| 
|-----5-4---5--4-|-----5-4-----5-4-|-----5-4---5--4-| 
|-----5-4---5--4-|-----5-4-----5-4-|-----5-4---5--4-| 
|----------------|-----------------|----------------| 
|-2-2-----2------|-2-2-----2-2-----|-2-2-----2------| 

 
 
                                    

|-----------------|----------------|---------------------|| 
|-----------------|----------------|--------------------o|| 
|-----5-4-----5-4-|-----5-4---5--4-|----------14--(14)\--|| 
|-----5-4-----5-4-|-----5-4---5--4-|-4-4------14--(14)\--|| 
|-----------------|----------------|-4-4------12--(12)\-o|| 
|-2-2-----2-2-----|-2-2-----2------|-2-2-----------------|| 

 
 
    gtr v 

||--------14-----------14----|--------14-----------14----| 
||o----12----12-----12----12-|-----12----12-----12----12-| 
||--14----------14-----------|-14-----------14-----------| 
||---------------------------|---------------------------| 
||o--------------------------|---------------------------| 
||---------------------------|---------------------------| 

|  
|   gtr iv 
 

||---------------------------|---------------------------| 
||o--------------------------|---------------------------| 
||---------------------------|---------------------------| 
||---4--4-----4-(4)--4-----4-|-(4)--4-----4-(4)--4-----4-| 
||o--4--4-----4-(4)--4-----4-|-(4)--4-----4-(4)--4-----4-| 
||---2--2--0--2-(2)--2--0--2-|-(2)--2--0--2-(2)--2--0--2-| 

 
 
 

|-------14-----------14----|--------14--------14-------| 
|----12----12-----12----12-|-----12----12--------12----| 
|-13----------13-----------|-13-----------13--------13-| 
|--------------------------|---------------------------| 
|--------------------------|---------------------------| 
|--------------------------|---------------------------| 

| 
 

|--------------------------|---------------------------| 
|--------------------------|---------------------------| 
|--2--2-----2-(2)--2-----2-|-(2)--2-----2-(2)--2-----2-| 
|--2--2-----2-(2)--2-----2-|-(2)--2-----2-(2)--2-----2-| 
|--0--0-----0-(0)--0-----0-|-(0)--0-----0-(0)--0-----0-| 
|--------3------------3----|---------3------------3----| 

 
 
 
|-------14-----------14----|--------14--------------| 
|----12----12-----12----12-|-----12----12-----------| 
|-14----------14-----------|-14-----------14--------| 
|--------------------------|------------------------| 
|--------------------------|------------------------| 
|--------------------------|------------------------| 
| 
|--------------------------|------------------------| 
|--------------------------|------------------------| 
|--4--4-----4-(4)--4-----4-|-(4)--4-----4-(4)-5-----| 
|--4--4-----4-(4)--4-----4-|-(4)--4-----4-(4)-5-----| 
|--2--2--0--2-(2)--2--0--2-|-(2)--2--0--2-(2)-3-----| 
|--------------------------|------------------------| 
 
 

|-------14-----------14----|--------14------------------|| 
|----12----12-----12----12-|-----12--------------------o|| 
|-13----------13-----------|-13--------13-13--11--------|| 
|--------------------------|----------------------------|| 
|--------------------------|---------------------------o|| 
|--------------------------|----------------------------|| 

| 
 

|--------------------------|----------------------------|| 
|--------------------------|---------------------------o|| 
|--------------------------|----------------------------|| 
|--4--4-----4-(4)--4-----4-|-(4)--4-----4-(4)--4----4---|| 
|--4--4-----4-(4)--4-----4-|-(4)--4-----4-(4)--4----4--o|| 
|--2--2--0--2-(2)--2--0--2-|-(2)--2--0--2-(2)--2--0-2---|| 

 
 
 

|--------14------------------|| 
|-----12---------------------|| 
|-13--------13-13--11--------|| 
|----------------------------|| 
|----------------------------|| 
|----------------------------|| 

| 
 

|----------------------------|| 
|----------------------------|| 
|----------------------------|| 
|-(4)--4-----4-(4)--4----4---|| 
|-(4)--4-----4-(4)--4----4---|| 
|-(2)--2--0--2-(2)--2--0-2---|| 

| 
 

|----------------------------||----------------|-------------| 
|----------------------------||----------------|-------------| 
|------------------------x-x-||-2--------------|-(2)---------| 
|------------------------x-x-||-2--------------|-(2)---------| 
|------------------------x-x-||-0--------------|-(0)---------| 
|----------------------------||----------------|-------------| 

 
 
  

|------------|------------------------------| 
|-20---------|-19-----(19)------------------| 
|------------|-------------18b19==(18)r-----| 
|------------|------------------------------| 
|------------|------------------------------| 
|------------|------------------------------| 

| 
 

|------------|------------------------------| 
|------------|------------------------------| 
|-(2)--------|-(2)-----(2)------------------| 
|-(2)--------|-(2)-----(2)------------------| 
|-(0)--------|-(0)-----(0)------------------| 
|------------|------------------------------| 

| 
 

|------------|------------------------------| 
|------------|------------------------------| 
|------------|------------------------------| 
|------------|------------------------------| 
|------------|---------------------/5-----7-| 
|------------|------------------------------| 

 
 

|--------------------------------------------------------| 
|--------------------------------------------------------| 
|-18b19==(18)r(18)b19==(18)r(18)b19==(18)r(18)b20==(18)r-| 
|--------------------------------------------------------| 
|--------------------------------------------------------| 
|--------------------------------------------------------| 

 

|--------------------------------------------------------| 
|--------------------------------------------------------| 
|---------------9----------------------------------------| 
|--------------------------------------------------------| 
|--------------------------------------------------------| 
|--------------------------------------------------------| 

| 
 

|--------------------------------------------------------| 
|--------------------------------------------------------| 
|--------------------------------------------------------| 
|-------------------------------------------2------------| 
|--0------------4----------------------3-------------3---| 
|----------5-------------5----3--------------------------| 

 
 
 

|--------------------------------------------------------| 
|--------------------------------------------------------| 
|-18b19==(18)r(18)b19==(18)r(18)b19==(18)r(18)b20==(18)r-| 
|--------------------------------------------------------| 
|--------------------------------------------------------| 
|--------------------------------------------------------| 

| 
 

|--------------------------------------------------------| 
|--8------------8-------------8-------------8------------| 
|--9------------9-------------9-------------9------------| 
|--------------------------------------------------------| 
|--------------------------------------------------------| 
|--------------------------------------------------------| 

 

|--------------------------------------------------------| 
|--------------------------------------------------------| 
|--------------------------------------------------------| 
|---------------4----------------------------------------| 
|----------5-------------5------------/3-------------5---| 
|--5-----------------------------------------------------| 

 
 
 

|-------------------------|-----------------------------| 
|-------------------------|-----------------------------| 
|-18----------------------|-----------------------------| 
|-------------------------|-----------------------------| 
|-------------------------|-----------------------------| 
|-------------------------|-----------------------------| 

| 
 

|----12p10-15-------10----|-----------------------------| 
|-13----------13-12-------|-10--------------------------| 
|----------------------12-|----11-12-11b12==(11)r-------| 
|-------------------------|-----------------------------| 
|-------------------------|-----------------------------| 
|-------------------------|-----------------------------| 

| 
 

|-------------------------|-----------------------------| 
|-------------------------|-----------------------------| 
|-------------------------|-----------------------------| 
|--------------------2----|--------4--------------------| 
|--0-----4--------3-----3-|-----5-----5-----------/5--7-| 
|-----5-----5--3----------|--5--------------------------| 

                                         
 

|------------------------------------| 
|------------------------------------| 
|-11b12==(11)r==(11)s9-11-9h11p9s7-9-| 
|------------------------------------| 
|------------------------------------| 
|------------------------------------| 

 
 

|-------------------------------------------------| 
|-------------------------------------------------| 
|-7h9p7s5-{4}b5==({4})r({4})b5==({4})r===({4})-/9-| 
|-----------------------------------------------x-| 
|----------------------------------------------/7-| 
|-------------------------------------------------| 

 
 
 

|----------------------------------|---------------------------|| 
|----------------------------------|---------------------------|| 
|-9----11-(11)-12-(12)-11----/14---|-11----12-(12)-------------|| 
|-x-----x--(x)--x--(x)--x------x---|--x-----x--(x)-12-10-------|| 
|-7-----9--(9)-10-(10)--9----/12---|--9----10-(10)--x--x-------|| 
|----------------------------------|---------------10--8-------|| 

 

|-17b19==(17)---(17)r(17)p14---------------------------------| 
|----------------------------17------17--14--17p=14h=17p=14--| 
|------------------------------------------------------------| 
|------------------------------------------------------------| 
|------------------------------------------------------------| 
|------------------------------------------------------------| 

 
 
 

|------------------------------------------------------------------| 
|------------------------------------------------------------------| 
|-16b18==(16)r-14---14b16==(14)r-------16b18==(16)r---14b15==(14)r-| 
|--------------------------------16p14-----------------------------| 
|------------------------------------------------------------------| 
|------------------------------------------------------------------| 

 
 
                        ~~~~ 

|-------------------------------------------------------| 
|-------------------------------------------------------| 
|-----------------4b6==(4)r--------------3-------4------| 
|-16--16-14h16\-----------------------------------------| 
|-------------------------------------------------------| 
|-------------------------------------------------------| 

 
 
                       ~~~ 

|---------------------------------------------| 
|---------------------------------------------| 
|-4b6==(4)r(4)---4b6==(4)-----(4)r(4)---------| 
|---------------------------------------------| 
|---------------------------------------------| 
|---------------------------------------------| 

 
 
 

|-14-9-9-9-9-9-12-9-9-9-9-9-10-9-9-9-9-9-12-9-9-9-9-9-| 
|-----------------------------------------------------| 
|-----------------------------------------------------| 
|-----------------------------------------------------| 
|-----------------------------------------------------| 
|-----------------------------------------------------| 

| 
 

|-----------------------------------------------------| 
|-----------------------------------------------------| 
|-----------------------------------------------------| 
|--4------------4------------4------------4-----------| 
|--4------------4------------4------------4-----------| 
|--2------------2------------2------------2-----------| 

 
 

|-10-9-9-9-9-9-12-9-9-9-9-9-14-9-9-9-9-9--|| 
|-----------------------------------------|| 
|-----------------------------------------|| 
|-----------------------------------------|| 
|-----------------------------------------|| 
|-----------------------------------------|| 

| 
 

|-----------------------------------------|| 
|-----------------------------------------|| 
|-----------------------------------------|| 
|--4------------4------------4------------|| 
|--4------------4------------4------------|| 
|--2------------2------------2------------|| 

 
 
 
            ~~~~~~~~~~~             ~~~~~~~~~~~~~~~~~ 

|-14s16----16---16--16--|-16s18----18-----18----18-------| 
|-----------------------|--------------------------------| 
|-----------------------|--------------------------------| 
|-----------------------|--------------------------------| 
|-----------------------|--------------------------------| 
|-----------------------|--------------------------------| 

 

|-----------------------|--------------------------------| 
|-----------------------|--------------------------------| 
|-------13-13-----------|----13s15----15-(15)--(15)\-/13-| 
|----11-----------------|----------13--------------------| 
|-----------------------|--------------------------------| 
|-----------------------|--------------------------------| 

 
 
                                                         
    ~~~~~~~~~~~~~~~~~~~~~~~~~~~~~~~~~~~~~~~~~~~~~~~~~~~~~~~~~~~~~~ 

|-(18)-------18-(18)-18---------------|---------18-------18----18-------|| 
|-------------------------------------|---------------------------------|| 
|-------------------------------------|---------------------------------|| 
|-------------------------------------|---------------------------------|| 
|-------------------------------------|---------------------------------|| 
|-------------------------------------|---------------------------------|| 

| 
 

|-------------------------------------|----------------------------13---|| 
|--14--13-----------------------------|-13b14==(13)r(13)-11-13-11--13---|| 
|---------13--------------------------|-13b14==(13)r(13)-11-13-11--13---|| 
|------------13-(13)-----(13)\-/11h13-|---------------------------------|| 
|-------------------------------------|---------------------------------|| 
|-------------------------------------|---------------------------------|| 

 
 

|--------14-----------14----| 
|-----12----12-----12----12-| 
|-14-----------14-----------| 
|---------------------------| 
|---------------------------| 
|---------------------------| 

| 
 

|---------------------------| 
|---------------------------| 
|---------------------------| 
|-(4)--4-----4-(4)--4-----4-| 
|-(4)--4-----4-(4)--4-----4-| 
|-(2)--2--0--2-(2)--2--0--2-| 

 
 

|-------14----------14----|-------14-------14-------| 
|----12----12----12----12-|----12----12-------12----| 
|-13----------13----------|-13----------13-------13-| 
|-------------------------|-------------------------| 
|-------------------------|-------------------------| 
|-------------------------|-------------------------| 

 

|-------------------------|-------------------------| 
|-------------------------|-------------------------| 
|--2--2--2--2--2--2--2--2-|--2--2--2--2--2--2--2--2-| 
|--2--2--2--2--2--2--2--2-|--2--2--2--2--2--2--2--2-| 
|--0--0--0--0--0--0--0--0-|--0--0--0--0--0--0--0--0-| 
|-------------------------|-------------------------| 

 
 
 

|-14-14-14-14-14-14-14-14-|-14-14-14-14-14-14-14-14-|-14-14-14-14-14-14-14-14-| 
|--x--x--x--x--x--x--x--x-|--x--x--x--x--x--x--x--x-|--x--x--x--x--x--x--x--x-| 
|-11-11-11-11-11-11-11-11-|-11-11-11-11-11-11-11-11-|-13-13-13-13-13-13-13-13-| 
|-------------------------|-------------------------|-------------------------| 
|-------------------------|-------------------------|-------------------------| 
|-------------------------|-------------------------|-------------------------| 

| 
 

|-------------------------|-------------------------|-------------------------| 
|-------------------------|-------------------------|-------------------------| 
|--4--4--4--4--4--4--4--4-|--4--4--4--4--4--4--4--4-|--2--2--2--2--2--2--2--2-| 
|--4--4--4--4--4--4--4--4-|--4--4--4--4--4--4--4--4-|--2--2--2--2--2--2--2--2-| 
|--2--2--2--2--2--2--2--2-|--2--2--2--2--2--2--2--2-|--0--0--0--0--0--0--0--0-| 
|-------------------------|-------------------------|-------------------------| 

 
 
 

|-14-14-14-14-14-14-14-14-|-14-14-14-14-14-14-14-14-| 
|--x--x--x--x--x--x--x--x-|--x--x--x--x--x--x--x--x-| 
|-13-13-13-13-13-13-13-13-|-14-14-14-14-14-14-14-14-| 
|-------------------------|-------------------------| 
|-------------------------|-------------------------| 
|-------------------------|-------------------------| 

 

|-------------------------|-------------------------| 
|-------------------------|-------------------------| 
|--2--2--2--2--2--2--2--2-|-------------------------| 
|--2--2--2--2--2--2--2--2-|--5--5--5--5--5--5--5--5-| 
|--0--0--0--0--0--0--0--0-|--5--5--5--5--5--5--5--5-| 
|-------------------------|--3--3--3--3--3--3--3--3-| 

 
 
 

|-14-14-14-14-14-14-14-14-|---------------*| 
|--x--x--x--x--x--x--x--x-|---------------*| 
|-14-14-14-14-14-14-14-14-|-11-11\--------*| 
|-------------------------|-11-11\--------*| 
|-------------------------|--9--9\--------*| 
|-------------------------|---------------*| 

| 
 

|-------------------------|---------------*| 
|-------------------------|---------------*| 
|-------------------------|---------------*| 
|--5--5--5--5--5--5--5--5-|--4--4\--------*| 
|--5--5--5--5--5--5--5--5-|--4--4\--------*| 
|--3--3--3--3--3--3--3--3-|--2--2\--------*|
Texto Colunas
Alterar tom ½ tom ½ tom
afinação acordes na letra esconder tabs mais »
15.758 exibições

Comentários (1)

  • sonic sonic: Postado em 22/07/2011 11:47

    A melhor musica do guns n roses...

Composição: Leo Kottke / Mariella Nava
Esse não é o compositor? Avise-nos.
Consegui tocarAinda não conseguiram tocar essa música. Seja o primeiro!
    Não consegui tocar
    1. Tudo Que Você Quiser - Luan Santana Manteve-se 4.902 exibições
    2. Lepo Lepo - Psirico Manteve-se 3.570 exibições
    3. Mozão - Lucas Lucco Manteve-se 3.423 exibições
    4. Logo Eu - Jorge e Mateus Manteve-se 3.029 exibições
    5. Gaveta - Fernando e Sorocaba Manteve-se 2.722 exibições
    6. Só Os Loucos Sabem - Charlie Brown Jr. Manteve-se 2.470 exibições
    7. Pra Você - Onze:20 Manteve-se 2.088 exibições
    8. Tempo Perdido - Legião Urbana Manteve-se 1.989 exibições
    9. Fui Fiel - Gusttavo Lima Manteve-se 1.760 exibições
    10. Na Linha do Tempo - Victor e Leo Manteve-se 1.759 exibições
    1. Jorge e Mateus- Manteve-se 18.170 exibições
    2. Legião Urbana- Manteve-se 16.306 exibições
    3. Luan Santana- Manteve-se 14.644 exibições
    4. Charlie Brown Jr.- Manteve-se 14.217 exibições
    5. Fernandinho- Manteve-se 12.391 exibições
    6. Thalles Roberto- Manteve-se 9.162 exibições
    7. Aline Barros- Manteve-se 9.064 exibições
    8. Católicas- Manteve-se 8.769 exibições
    9. Victor e Leo- Manteve-se 8.687 exibições
    10. Bruno e Marrone- Manteve-se 8.333 exibições
    Exibir acordes »

    Cifras e tabs

    Fórum Cifra Club

    Aprenda

    Cifra Club News

    Mais Serviços Cifra Club ID

    Studio Sol

    ©1996 - 2014 Cifra Club · o primeiro, maior e mais acessado do Brasil · 329 mil músicas · 5.9 milhões pessoas cadastradas

    publicidade
    fechar