Nasci Pra Te Amar

Henrique e Juliano

 Henrique e Juliano
Tom: A
		
INTRODUÇÃO


E|5----------------------------------------------3-2-----------------5|
B|-3-3-3-----3-3-3-3-3-3-3-5-2-3--3-2-0--------------3-3/5---2-3-3/5--|
G|------------------------------2-------2-0--0-2----------------------|
D|--------------------------------------------------------------------|
A|--------------------------------------------------------------------|
E|--------------------------------------------------------------------|



Solo:

E|--------------------------|-----------------------------|
B|--------------------------|----3-5----3-5----3-5----3-5-|
G|---2-4---2-4----2-4----2-4|--2------2------2------2-----|
D|-4-----4------4------4----|-----------------------------|
A|--------------------------|-----------------------------|
E|--------------------------|-----------------------------|           NÃO ACHEI ESSE SOLO EM NENHUM LUGAR MAIS E LEGALZIM



E|--------------------------|------------------------------|
B|--------------------------|---------------------------0-2|
G|---2-4---2-4---2-4---2-4--|-4-2-1-2-2/4-1-------0-4-2----|
D|-4-----4-----4-----4------|---------------2-4-5----------|
A|--------------------------|------------------------------|
E|--------------------------|------------------------------|


Bm                                                 G
Eu nunca fui de escrever cartas nem mandar flores
                                                             D
Eu que já tive na minha vida milhões de amores
                                                A
É a primeira vez que eu não sinto meus pés no chão
Bm                                         G
Fiquei perdido quando vi seu olhar no meu
                                              D
Quase que fiquei louco querendo um beijo seu
                                         A
Senti dentro do peito, bater forte o coração
         Bm
Mas era cedo,
           G
Pra me declarar
             D
Fiquei com medo,
            A
De você duvidar
D                                                Bm
No outro dia tive a sorte e te encontei de novo

Falei desse amor que é lindo,
          G                                             A      G A
Mas é perigoso quando se ama alguém que não quer se apaixonar
D                                      Bm
Mas e você sorriu e o medo desapareceu
                                    G
Notei que o amor da sua vida era eu
                                      A
Então te dei um beijo e fiz você acreditar
         G    A      Bm   ( G D A)
Que eu nasci pra te amar


         Bm
Mas era cedo,
           G
Pra me declarar
             D
Fiquei com medo,
            A   G A
De você duvidar
D                                                Bm
No outro dia tive a sorte e te encontei de novo

Falei desse amor que é lindo,
          G                                             A      G A
Mas é perigoso quando se ama alguém que não quer se apaixonar
D                                      Bm
Mas vi você sorrindo e o medo desapareceu
                                    G
Notei que o amor da sua vida era eu
                                      A
Então te dei um beijo e fiz você acreditar
         G    A      Bm
Que eu nasci pra te amar
Texto Colunas
Alterar tom ½ tom ½ tom
afinação acordes na letra esconder tabs mais »
23.109 exibições

Comentários 4

  • kayro.nascimento.77 kayro.nascimento.77: Postado em 10/09/2014 07:40

    são 2 violão sáapohaa

  • Delmar Delmar: Postado em 06/07/2014 21:36

    alguém pode da uma dica de ritmo?

  • oliveira09 oliveira09: Postado em 26/11/2013 05:29

    musica linda di+++ e facil de tocar!!

  • leonardo_barros leonardo_barros: Postado em 30/06/2013 11:04

    O refrão ficou estranho .-.

Composição: Sabe quem é o compositor? Envie pra gente. Contribuição: Ytalo Ayala Correções: rodrigotc13 , ytaloayala e mais 6 »
  1. Até Você Voltar - Henrique e Juliano Manteve-se 102.753 exibições
  2. Domingo de Manhã - Marcos e Belutti Manteve-se 82.083 exibições
  3. Cuida Bem Dela - Henrique e Juliano Manteve-se 49.243 exibições
  4. Recaídas - Henrique e Juliano Manteve-se 44.082 exibições
  5. Pra Você - Onze:20 Manteve-se 43.073 exibições
  6. Só Os Loucos Sabem - Charlie Brown Jr. Manteve-se 33.631 exibições
  7. Logo Eu - Jorge e Mateus Manteve-se 31.731 exibições
  8. Pais e Filhos - Legião Urbana Manteve-se 31.422 exibições
  9. Raridade - Anderson Freire Manteve-se 30.434 exibições
  10. Evidências - Chitãozinho & Xororó Manteve-se 24.661 exibições
  1. Henrique e Juliano- Manteve-se 277.117 exibições
  2. Jorge e Mateus- Manteve-se 232.609 exibições
  3. Legião Urbana- Manteve-se 203.767 exibições
  4. Charlie Brown Jr.- Manteve-se 158.018 exibições
  5. Bruno e Marrone- Manteve-se 123.538 exibições
  6. Fernandinho- Manteve-se 120.152 exibições
  7. Luan Santana- Manteve-se 103.034 exibições
  8. Marcos e Belutti- Manteve-se 100.347 exibições
  9. Thalles Roberto- Manteve-se 93.006 exibições
  10. The Beatles- Manteve-se 92.352 exibições
Exibir acordes »

Cifras e tabs

Fórum Cifra Club

Aprenda

Cifra Club News

Mais Serviços Cifra Club ID

Studio Sol

©1996 - 2014 Cifra Club · o primeiro, maior e mais acessado do Brasil · 339 mil músicas · 6.3 milhões pessoas cadastradas

publicidade
fechar