O Bom E O Velho Rock´N´Roll

Ira!

 Ira!
Tom: C#
		
Obs.: Ouça bastante que te ajudará muito!



e|---------------------------------|
b|---------------------------------|
G|---------------------------------|  Riff principal
D|---------------------------------|
A|---------------------------------|
E|-3-3-3-3-3-3-3-6-3-3-3-3-3-3-3-2-|




Quem me abraçou, me protegeu
me acalmou, me angrandeceu
quem me despiu e me cubriu

O bom e velho Rock'n'Roll }3X

Ha ha ha.

Quem me abateu e me vendeu,
me conquistou me seduziu,
me entorpeceu me encaretou,
me converteu em pecador
e quem moreu ressucitou,
e quem partiu depois voltou
e quem mentiu até blefou

O bom e velho Rock'n'Roll}3X

    O bom e o velho rock'n'roll,oh oh oh 

D|-----------------------------------------------------------------------|
A|-------------------------------8-8-8-8-8-8-8-8-10-10-10-10-10-10-10-10-|
E|-3-3-3-3-3-3-3-6-3-3-3-3-3-3-3-6-6-6-6-6-6-6-6-8--8--8--8--8--8--8--8--|


     O bom e o velho rock'n'roll,oh oh oh 

D|---------------------------------------------------------------|
A|-------------------------------8-8-8-8-8-8-8-8-4-4-4-4-4-4-4-4-|
E|-3-3-3-3-3-3-3-3-3-3-3-3-3-3-3-6-6-6-6-6-6-6-6-2-2-2-2-2-2-2-2-|

ha,ha,ha,hah

riff principal, depois


A|-5-5-5-5-5-5-5-8-5-5-5-5-5-5-5-4-|
E|-3-3-3-3-3-3-3-6-3-3-3-3-3-3-3-2-|riff 2


Quem me abateu e me vendeu 
me conquistou me seduziu
me entorpeceu me encaretou
me converteu em pecador
e quem moreu ressucitou,
e quem partiu depois voltou
e quem mentiu,até blefou


O bom e velho Rock'n'Roll }3X


    O bom e o velho rock'n'roll,oh oh oh 

D|-----------------------------------------------------------------------|
A|-------------------------------8-8-8-8-8-8-8-8-10-10-10-10-10-10-10-10-|
E|-3-3-3-3-3-3-3-6-3-3-3-3-3-3-3-6-6-6-6-6-6-6-6-8--8--8--8--8--8--8--8--|



    O bom e o velho rock'n'roll,oh oh oh 

D|---------------------------------------------------------------|
A|-------------------------------8-8-8-8-8-8-8-8-4-4-4-4-4-4-4-4-|
E|-3-3-3-3-3-3-3-3-3-3-3-3-3-3-3-6-6-6-6-6-6-6-6-2-2-2-2-2-2-2-2-|


riff principal, depois


A|-5-5-5-5-5-5-5-8-5-5-5-5-5-5-5-4-|
E|-3-3-3-3-3-3-3-6-3-3-3-3-3-3-3-2-|riff 2


O bom e velho Rock'n'Roll }2X




Cifrada por: Luis Paulo L. Peretti

http://shun.flogbrasil.terra.com.br 
17.041 exibições

Comentários 0

Consegui tocarAinda não conseguiram tocar essa música. Seja o primeiro!
    Não consegui tocar
    Exibir acordes »
    publicidade
    fechar