Maio

Kid Abelha

 Kid Abelha
Tom: G
		
George Israel /Paula Toller

introdução:

E|------------10-8-7-------------------------------------10----
A|-----10-9-7--------------------10-9---9-10-9-7---7-9-7-------
D|-9-7----------------9-7-10-9-7-------------------------------
G|-------------------------------------------------------------
B|-------------------------------------------------------------
E|-------------------------------------------------------------


que somos nós afinal...  longe demais

E|---------------------|-------------------
A|---------------------|-------------------
D|-----9-------9-------|-------------------
G|-9-------9-------9---|---------------7-7-
B|---------------------|--8~-8-7-7-5-5-----
E|---------------------|-------------------


é hora de se mover...

E|---------------------------------------------------------------
A|---------------------------------------------------------------
D|--------------------------9------------------------------------
G|-9---------9----------9------9--9-7-9-7--------------7---------
B|---12-10-----12-10---------------------------8-7-5-7-----------
E|-------------------10------------------------------------------


eu preciso de álguem        maio...

E|-------------------------|--------------------
A|-------------------------|--------------------
D|-------------------------|--------------------
G|-7-5-7-5-----7-5-7-5-7---|----------------7---
B|-----------------------5-|--------7-5-5-7-----
E|-------------------------|-5-5-7--------------


estamos longe demais longe demais...  já está no final

E|-------------------|---------------|----------------------
A|-7-----------7-----|---------------|----------------------
D|---5-7---7-5---7---|---------------|----------------------
G|-------4-----------|-7-------------|---------7------------
B|-------------------|---5-----------|-8-7-5-5--------------
E|-------------------|-----5-5-5-5-7-|----------------------


é hora de se mover...

E|---------------------------------------------------------------
A|-5-7-------7-5-5-7-------7-5-5-7----------7--------------------
D|-----5-7-5---------5-7-5---------5-8-7--7---5------------------
G|---------------------------------------------------------------
B|---------------------------------------------------------12-10-
E|-----------------------------------------------12~-12-10-------


eu preciso...  qual eu não seja... eu preciso de álguem

E|-------------|-------------------|--------------------
A|-------------|-------------------|--------------------
D|-------------|-------------------|--------------------
G|-------------|-------------7-----|-------------7------
B|-10-10-8-7---|-10-10-8-7-8-------|-10-10-8-7-8--------
E|-------------|-------------------|--------------------

maio...

E|---------------------------------------------------------------
A|------------------------------------------8-7-8-7-8-7-5-3-5----
D|------------------------------------------------------------5--
G|-------------------------7-7---------7-7-----------------------
B|-----------------8-8---5-----8-8---5---------------------------
E|-12-10----12-10------5-----------5-----------------------------


maio(acústico)
intro/fim:                               ...de alguém(solo bem rápido)

E|---------------------------------------3--|--------------------------------------------------
B|-----1-----1-----1-----1-----1---------3--|--------------------------------------------------
G|---2-----2-----2-----2-----2-----------0--|--------------------------------------------------
D|-3-----2-----3-----2-----3-----2-------0--|-9-10-9-7----7------------------------------------
A|---------------------------------5-3-5-2--|----------10---10-9-10-9-7------------------------
E|---------------------------------------3--|---------------------------10-8-7-8-7-8-5---------


 G            D
 Maio já está no final
   C                Am7
 O que somos nós afinal
    C                 Am7
 se já não nos vemos mais
   C             Em7 
 Estamos longe demais
          D
 longe demais
 G            D
 Maio já está no final
   C             Am7
 É hora de se mover
     C                Am7
 prá viver mil vezes mais
   C   
 Esqueça os meses
   Am7              Em7
 esqueça os seus finais
                D9
 esqueça os finais

       Am7         D7
 Eu preciso de alguém
         Am7          D7
 sem o qual eu passe mal
         C        G/B       D
 sem o qual eu não seja ninguém
        Am7        D
 eu preciso de alguém

 G
 Maio, uh uh, Maio, uh uh
 Maio, uh uh, Maio, uh uh

FIM: F Am7 F Am7 F Am7 G


Cifrada por Jorge Luís R. Silva
157.121 exibições

Comentários 2

Composição: George Israel / Joe Puerta / José Luis Perales / Lucas
Esse não é o compositor? Avise-nos.
Exibir acordes »
publicidade
fechar