Anna Júlia

Marcelo Camelo

 Marcelo Camelo

depois da intro da guitarra entra o baixo:
Gb|-----------------6------------------------|
Db|---------------6---6----------------------|
Ab|----------4-4-------x---4/6-4-2-4-2-0-2-0-|
Eb|-0-0-0-0--------------4-------------------|

...eu sei...que vc...
Gb|------------------------------------------------|
Db|------------------------------------------------|
Ab|-4~-4-4-4-4-------------------------------------|
Eb|------------4~-4-4-4-4-5-5-5-5-5-7-7-7-7-777777-|

refrao:
Gb|-------------------------------------------------|
Db|-------------------------------------------------|
Ab|-------------------------------------------------|
Eb|-0-0-0-0-5-5-5-5-7-7-7-7-0-0-0-0-5-5-5-5-7-7-7-7-|

solo:
Riff 1 (2x)
Gb|-------------------------|
Db|-------------------------|
Ab|-------------------------|
Eb|-0-0-0-0-5-5-5-5-7-7-7-7-|

Riff 2
Gb|---------------------------------------------------------------------------|
Db|---------------------------------------------------------------------------|
Ab|-4-4-4-4-----------------7-7-7-7-2-0-2-0-4-4-4-4---------------------------|
Eb|---------4-4-4-4-5-5-5-5-------------------------4-4-4-4-5-5-5-5-7-7-7-7-7-|
697 exibições

Comentários 0

Composição: Marcelo Camelo
Esse não é o compositor? Avise-nos.
Contribuição: IZZY(K)
Consegui tocarAinda não conseguiram tocar essa música. Seja o primeiro!
    Não consegui tocar
    publicidade
    fechar