Mesa de Saloon

Matanza

 Matanza Compositor: (Donida)
Intro
G|-------------------------------------------------
D|-------------------------------------------------
A|-------------------------------------------------
E|---22(8x)----------------------------------------

Primeiro dia fora da cadeia....
G|-------------------------------------------------
D|-------------------------------------------------
A|-------------22-22-22----------444444------------
E|----22-22-22----------22-22-22-------------------

De volta na estrada, hoje....
G|-------------------------------------------------
D|-------------------------------------------------
A|-------------22-22-22----------444444------------
E|----22-22-22----------22-22-22-------------------

(Pré Refrão)
Movimentação estranha e tirtoteio....
G|-------------------------------------------------
D|---4444------------------------------------------
A|-------2222----4444------------------------------
E|-----------2222----------------------------------

Agora são mais duas horas....
G|-------------------------------------------------
D|---4444------------------------------------------
A|-------2222----4444------------------------------
E|-----------2222----------------------------------

Esse destino que de novo....
G|-------------------------------------------------
D|-------------------------------------------------
A|--------2-222-------4-444--2-222--4-444----------
E|--5-555-------2-222---------------------2-222----

Refrão
Foi numa mesa de bar....
G|-------------------------------------------------
D|-------------------------------------------------
A|--22222-----22222-----22222---------4444---------
E|-------22222-----22222-----2222-5555----2222-----

Solo Guitarra
***Depois segue a mesma estrutura !****

Comentários 0

Composição: Matanza
Esse não é o compositor? Avise-nos.
Contribuição: celo_hc
publicidade
fechar