Rape Me

Nirvana

 Nirvana
Tom: C
		

           A                C                   E              G
 |-----------------|-----------------|-----------------|-3-3-3---------|
 |-----------------|-----------------|-----------------|-0-0-0---------|
 |------2---2------|-5-5-5-5-5-5-----|-----------------|-0-0-0---------|   2X
 |------2---2------|-5-5-5-5-5-5-----|------2---2------|-0-0-0---------|
 |------0---0------|-3-3-3-3-3-3-----|------2---2------|-2-2-2---------|
 |------X---X------|-X-X-X-X-X-X-----|------0---0------|-3-3-3---------|

      Rape Me...

 |-----------------|-----------------|-----------------|-----------------|
 |-----------------|-----------------|-----------------|-----------------|
 |--------2--------|-----------5-----|---------2-------|--------0--------|
 |--------2--------|-------5---5-----|---------2-------|------0-0--------|
 |-----0-----------|---0-3-----------|-----3---2-------|-----------------|
 |-----------------|-----------------|-------0---------|-0-3-------------|

       Rape Me My Friend...

 |-----------------|-----------------|-----------------|-----------------|
 |-----------------|-----------------|-----------------|-----------------|
 |--------2--------|-----------5-----|---------2-------|--------0--------|
 |--------2--------|-------5---5-----|---------2-------|------0-0--------|
 |-----0-----------|---0-3-----------|-----3---2-------|-----------------|
 |-----------------|-----------------|-------0---------|-0-3-------------|

       Rape Me...

 |-----------------|-----------------|-----------------|-----------------|
 |-----------------|-----------------|-----------------|-----------------|
 |--------2--------|-----------5-----|---------2-------|--------0--------|
 |--------2--------|-------5---5-----|---------2-------|------0-0--------|
 |-----0-----------|---0-3-----------|-----3---2-------|-----------------|
 |-----------------|-----------------|-------0---------|-0-3-------------|

       Rape Me Again...

 |-----------------|-----------------|-----------------|-----------------|
 |-----------------|-----------------|-----------------|-----------------|
 |--------2--------|-----------5-----|-----------------|-----------------|
 |--------2--------|-------5---5-----|---------2-------|-----------------|
 |-----0-----------|---0-3-----------|-----3---2-------|-----------------|
 |-----------------|-----------------|-------0-0-------|--0-3-/12-------|


 Heavy Distorted Guitar

           A                C                   E              G
 |-----------------|-----------------|-----------------|-3-3-3---------|
 |-----------------|-----------------|-----------------|-0-0-0---------|
 |------2---2------|-5-5-5-5-5-5-----|-----------------|-0-0-0---------|   (4x)
 |------2---2------|-5-5-5-5-5-5-----|------2---2------|-0-0-0---------|
 |------0---0------|-3-3-3-3-3-3-----|------2---2------|-2-2-2---------|
 |------X---X------|-X-X-X-X-X-X-----|------0---0------|-3-3-3---------|

       I'm Not The Only One... Ahhh....

Verso:

           A                C                   E              G
 |-----------------|-----------------|-----------------|-3-3-3---------|
 |-----------------|-----------------|-----------------|-0-0-0---------|
 |------2---2------|-5-5-5-5-5-5-----|-----------------|-0-0-0---------|
 |------2---2------|-5-5-5-5-5-5-----|------2---2------|-0-0-0---------|
 |------0---0------|-3-3-3-3-3-3-----|------2---2------|-2-2-2---------|
 |------X---X------|-X-X-X-X-X-X-----|------0---0------|-3-3-3---------|


Refrão:

 |-----------------|--------------------------|
 |-----------------|--------------------------|
 |---6-6-6-6-6-6---|--2-2-2-------------------|  (2x)
 |---6-6-6-6-6-6---|--2-2-2-------------------|
 |---4-4-4-4-4-4---|--0-0-0-------------------|
 |-----------------|--------0-0-3--0-0-1--0-0-|

       My Favorite Inside Source...        I Kiss Your Open Sores...

 |-----------------|--------------------------|
 |-----------------|--------------------------|
 |---6-6-6-6-6-6---|--2-2-2-------------------|  (2x)
 |---6-6-6-6-6-6---|--2-2-2-------------------|
 |---4-4-4-4-4-4---|--0-0-0-------------------|
 |-----------------|--------0-0-3--0-0-1--0-0-|

       Appreciate Your Concern...          You'll Always Stink And Burn...

 |-----------------|-----------------|-----0-----------|-----------------|
 |-----------------|-----------------|-----0-----------|-----------------|
 |-----------------|-----------------|-----X-----------|-----------------|
 |-3-3-3-3-3-3-3-3-|-5-5-5-5-5-5-5-5-|-----2-----------|-----------------|
 |-3-3-3-3-3-3-3-3-|-5-5-5-5-5-5-5-5-|-----2-----------|-----------------|
 |-1-1-1-1-1-1-1-1-|-3-3-3-3-3-3-3-3-|-----0-----------|-----------------|

                                             (Open E Rings Out For An 8 Count)

Verso:
                                                       Heavy Distorted

           A                C                   E              G
 |-----------------|-----------------|-----------------|----------|
 |-----------------|-----------------|-----------------|----------|
 |------2---2------|-5-5-5-5-5-5-----|-----------------|----------|
 |------2---2------|-5-5-5-5-5-5-----|------2---2------|----------|
 |------0---0------|-3-3-3-3-3-3-----|------2---2------|----------|
 |------X---X------|-X-X-X-X-X-X-----|------0---0------|-3-/12---|


           A                C                   E              G
 |-----------------|-----------------|-----------------|--------|
 |-----------------|-----------------|-----------------|--------|
 |------2---2------|-5-5-5-5-5-5-----|-----------------|-0-0-0--|
 |------2---2------|-5-5-5-5-5-5-----|------2---2------|-0-0-0--|
 |------0---0------|-3-3-3-3-3-3-----|------2---2------|-2-2-2--|
 |------X---X------|-X-X-X-X-X-X-----|------0---0------|-3-3-3--|

       I'm Not The Only One... Ahhh....

           A                C                   E          G
 |-----------------|-----------------|-----------------|-------|
 |-----------------|-----------------|-----------------|-------|
 |------2---2------|-5-5-5-5-5-5-----|-----------------|-0-0-0-|
 |------2---2------|-5-5-5-5-5-5-----|------2---2------|-0-0-0-|
 |------0---0------|-3-3-3-3-3-3-----|------2---2------|-2-2-2-|
 |------X---X------|-X-X-X-X-X-X-----|------0---0------|-3-3-3-|

         Rape Me!...                         Rape Me!...         Final
Texto Colunas
Alterar tom ½ tom ½ tom
afinação acordes na letra esconder tabs mais »

Comentários 38

  • caio.muniz.775 caio.muniz.775: Postado em 27/06/2014 18:38

    O ritmo fica tipo ↓↓ no A, ↓↑↓↑ ↓↓ no C, ↓↓ no E, ↓↑↓ no G e ↓↓ no A de novo.

  • Rodrigo Rodrigo: Postado em 23/04/2014 20:25

    Não faz,mas fala besteira

  • Jennifer Jennifer: Postado em 02/04/2014 22:04

    meu, sabe oq eu fico puta da vida?? essas pessoas idiotas q n sabem nada e ficam falando q essa musica eh apologia ao estrupo!

  • Sophia Sophia: Postado em 12/03/2014 19:14

    Qual é o ritmo disso? .--.

    • fawkes.cobain fawkes.cobain: Postado em 07/08/2014 12:34

      Na verdade é bem simples
      Pense no ritmo de Smells Like Teen Spirit mais leve e com esses acordes
      Sai bem bonito e não é tão especifico

  • jubandonni jubandonni: Postado em 04/03/2014 19:51

    Se vc odeia os GAYS, pessoas de cor diferente ou as mulheres, faça-nos um favor: Ñ VENHA AOS NOSSOS SHOWS E Ñ COMPRE NOSSOS DISCOS -kurt cob

  • bruno.donald321 bruno.donald321: Postado em 30/09/2013 08:46

    Comentário removido

    • Marcelo Marcelo: Postado em 24/10/2013 21:44

      eita porra ahahaha calma

    • Lucas Lucas: Postado em 12/12/2013 00:15

      Cala a boca vey se vc nao gosta de Nirvana então pq tocou na boa fica queto ai

    • bruno.donald321 bruno.donald321: Postado em 17/01/2014 13:58

      Comentário removido

Exibindo 10 de 38 comentários Mostrar mais ver todos »
Composição: Kurt Cobain
Esse não é o compositor? Avise-nos.
Contribuição: Ch@d Correções: nerdemdr e mais 2 »
  1. Domingo de Manhã - Marcos e Belutti Manteve-se 99.062 exibições
  2. Logo Eu - Jorge e Mateus Manteve-se 48.043 exibições
  3. Pra Você - Onze:20 Manteve-se 47.661 exibições
  4. Counting Stars - OneRepublic Manteve-se 39.108 exibições
  5. Recaídas - Henrique e Juliano Manteve-se 36.153 exibições
  6. Aonde Quer Que Eu Vá - Os Paralamas do Sucesso Manteve-se 36.002 exibições
  7. Até Você Voltar - Henrique e Juliano Manteve-se 34.933 exibições
  8. Só Os Loucos Sabem - Charlie Brown Jr. Manteve-se 32.237 exibições
  9. Pais e Filhos - Legião Urbana Manteve-se 30.256 exibições
  10. Happy - Pharrell Williams Manteve-se 25.837 exibições
  1. Jorge e Mateus- Manteve-se 269.002 exibições
  2. Legião Urbana- Manteve-se 211.915 exibições
  3. Charlie Brown Jr.- Manteve-se 157.906 exibições
  4. Henrique e Juliano- Manteve-se 146.876 exibições
  5. Marcos e Belutti- Manteve-se 121.087 exibições
  6. Fernandinho- Manteve-se 120.051 exibições
  7. Luan Santana- Manteve-se 112.704 exibições
  8. Bruno e Marrone- Manteve-se 110.207 exibições
  9. Victor e Leo- Manteve-se 96.822 exibições
  10. Thalles Roberto- Manteve-se 94.665 exibições
Exibir acordes »

Cifras e tabs

Fórum Cifra Club

Aprenda

Cifra Club News

Mais Serviços Cifra Club ID

Studio Sol

©1996 - 2014 Cifra Club · o primeiro, maior e mais acessado do Brasil · 337 mil músicas · 6.2 milhões pessoas cadastradas

publicidade
fechar