The Man Who Sold The World

Nirvana

 Nirvana
Tom: E
Afinação: Eb Ab Db Gb Bb Eb
		
Intro: F  Dm
       

Eb|-------------------------------------| 
Bb|-------------------------------------| 
Gb|--2-2-2-0-2h3p2-0---2-2-2-0-2h3p2-0--| 
Db|-------------------------------------| 
Ab|-------------------------------------| 
Eb|-------------------------------------| 



Eb|---------------------------------| 
Bb|---------------------------------| 
Gb|--2-2-2-0-2h3p2-0--2-2-2-0-0-0-2-| 
Db|---------------------------------| 
Ab|---------------------------------| 
Eb|---------------------------------| 



                    A
We past upon the stairs  
                 Dm
Spoken walls of when 
                  A
Although I wasn´t there  
                  F
Said I was his friend  
                   C
Which came as a surprise 
                 A
I spoke into his eyes  
                    Dm
I thought you died alone  
                     C
A long, long time ago  
            

Riff 1: 


Eb|----------------------------------------------------| 
Bb|----------------------------------------------------| 
Gb|-----------2-3-5------------2-3-5------------2-3-5--| 
Db|-----2-3-5------------2-3-5------------2-3-5--------| 
Ab|-3-5--------------3-5--------------3-5--------------| 
Eb|----------------------------------------------------| 


            F
Oh no, not me  
   C#                F
We never lost control  
  
Riff 2 

Eb|--------------------| 
Bb|--------------------| 
Gb|--------------------| 
Db|--------------0-2-3-| 
Ab|-------0-1-3--------| 
Eb|--1-3---------------| 



       C      F
Your face to face 
         C#                    A     Dm
With the man who sold the world  
  
Introdução: F Dm
       

Eb|-------------------------------------| 
Bb|-------------------------------------| 
Gb|--2-2-2-0-2h3p2-0---2-2-2-0-2h3p2-0--| 
Db|-------------------------------------| 
Ab|-------------------------------------| 
Eb|-------------------------------------| 



Eb|---------------------------------| 
Bb|---------------------------------| 
Gb|--2-2-2-0-2h3p2-0--2-2-2-0-0-0-2-| 
Db|---------------------------------| 
Ab|---------------------------------| 
Eb|---------------------------------| 


  
                        A
I laughed and shook his hand  
               Dm
Made my way become  
                         A
I searched for foreign land  
                        F
For years and years I romed  
                   C
I gazed a pazly stare  
                      A
We walked a millions hills 
                    Dm
I must have died alone  
                     C
A long, long time ago  
                
Riff 1: 


Eb|----------------------------------------------------| 
Bb|----------------------------------------------------| 
Gb|-----------2-3-5------------2-3-5------------2-3-5--| 
Db|-----2-3-5------------2-3-5------------2-3-5--------| 
Ab|-3-5--------------3-5--------------3-5--------------| 
Eb|----------------------------------------------------| 


               F
Who knows, not me  
  C#                F
I never lost control  
           
Riff 2 

Eb|--------------------| 
Bb|--------------------| 
Gb|--------------------| 
Db|--------------0-2-3-| 
Ab|-------0-1-3--------| 
Eb|--1-3---------------| 



       C       F
Your face, to face  
         C#                    A     Dm
With the man who sold the world  
  
Introdução 
  
Riff 1: 


Eb|----------------------------------------------------| 
Bb|----------------------------------------------------| 
Gb|-----------2-3-5------------2-3-5------------2-3-5--| 
Db|-----2-3-5------------2-3-5------------2-3-5--------| 
Ab|-3-5--------------3-5--------------3-5--------------| 
Eb|----------------------------------------------------| 



C             F
Who knows, not me  
   C#                F
We never lost control  

Riff 2 

Eb|--------------------| 
Bb|--------------------| 
Gb|--------------------| 
Db|--------------0-2-3-| 
Ab|-------0-1-3--------| 
Eb|--1-3---------------| 


Introdução: F Dm
       

Eb|-------------------------------------| 
Bb|-------------------------------------| 
Gb|--2-2-2-0-2h3p2-0---2-2-2-0-2h3p2-0--| 
Db|-------------------------------------| 
Ab|-------------------------------------| 
Eb|-------------------------------------| 



Eb|---------------------------------| 
Bb|---------------------------------| 
Gb|--2-2-2-0-2h3p2-0--2-2-2-0-0-0-2-| 
Db|---------------------------------| 
Ab|---------------------------------| 
Eb|---------------------------------| 

  
Solo: (A Dm F Dm A Dm F)
                             


Eb|-----------------|-------------------------|-----------------| 
Bb|-----------------|-------------------------|-----------------| 
Gb|-2-2-2-0-2h3p2-0-|-2-2-2-0-2-2/10-10-9-9\--|-2-2-2-0-2h3p2-0-| 
Db|-----------------|-------------------------|-----------------| 
Ab|-----------------|-------------------------|-----------------| 
Eb|-----------------|-------------------------|-----------------| 
                (7x) 


Eb|--------------------------------------------------|-----------------| 
Bb|--------------------------------------------------|-----------------| 
Gb|-2-2-2-0-2-2-2/9-9--9-9-9-9--9\8--8\7--7--7/9-9-/-|-2-2-2-0-2h3p2-0-| 
Db|--------------------------------------------------|-----------------| 
Ab|--------------------------------------------------|-----------------| 
Eb|--------------------------------------------------|-----------------| 



Eb|----------------------------------------------|-----------------|--| 
Bb|----------------------------------------------|-----------------|--| 
Gb|-2-2-2-0-2-2/10-10-10-10-10-10\9-9\7-7-7/9-9\-|-2-2-2-0-2h3p2-0-|2-| 
Db|----------------------------------------------|-----------------|--| 
Ab|----------------------------------------------|-----------------|--| 
Eb|----------------------------------------------|-----------------|--| 
                                                   (2x)

Comentários 72

  • alex alex: Postado em 16/09/2014 16:14

    gostei parabens!

  • matheus.eduardo.92351 matheus.eduardo.92351: Postado em 22/07/2014 23:10

    pq v6 n colokam logo os acordes certos? affs na cifra aki ta diferente da video aula rapaz

    • Lucas Lucas: Postado em 14/08/2014 23:31

      G ---2-2-2-0-2h3--------------------------------
      Pode substituir o solinho da introdução

  • sodinha2011 sodinha2011: Postado em 05/04/2014 12:38

    vcs são os cara,consegui tocar vlw

  • Jaelton Jaelton: Postado em 22/03/2014 19:50

    tem muito gente burra msm. é so olhar a versão 2 :-v

  • Paulo Paulo: Postado em 15/01/2014 11:25

    MUITO FACIL MAS Q COME AS YOU ARE

  • lukewilkshire.lukwill lukewilkshire.lukwill: Postado em 24/12/2013 22:20

    Muito massa

  • Lucas Lucas: Postado em 01/12/2013 14:07

    Ta errado a cifra no começo os acordes são A e Dm

    • Pedro Henrique Pedro Henrique: Postado em 07/01/2014 23:11

      Na versão do David Bowie

    • Guilherme Guilherme: Postado em 09/03/2014 23:26

      Dá quase no mesmo, não entendo muito mas fica um tom abaixo ou acima só.

    • acte acte: Postado em 22/05/2014 19:16

      O nirvana tocou essa no acústico em NY, meio tom abaixo.

Exibindo 13 de 72 comentários Mostrar mais ver todos »
Composição: David Bowie / Don Schlitz
Esse não é o compositor? Avise-nos.
Contribuição: keu Correções: tarsiuslima , Spin e mais 12 »
Exibir acordes »
publicidade
fechar