Cifra Club

The Man Who Sold The World

Nirvana

Cifra: Principal (violão e guitarra)
exibições 1.118.918
Tom: C#m
[Intro] G#  C#m  E  C#m

[Solo 1]

Parte 1 de 2

E|----------------------------------------------------|
B|----------------------------------------------------|
G|-1--1--1------1h2p1---------------------------------| (5x)
D|----------4----------4------------------------------|
A|----------------------------------------------------|
E|----------------------------------------------------|

Parte 2 de 2

E|----------------------------------------------------|
B|----------------------------------------------------|
G|-1--1--1------1h2p1-----1---------------------------|
D|----------4----------4------------------------------|
A|----------------------------------------------------|
E|----------------------------------------------------|

[Primeira Parte]

                     G#
We passed upon the stairs
                         C#m
we spoke Of was and when
                    G#
Although I wasn't there
                         E
He said I was his friend
                        B   
Which came as some surprise 
                 G#
I spoke into his eyes
                     C#m
I thought you died alone
A long long time ago

[Refrão]

Parte 1 de 7

E|----------------------------------------------------|
B|----------------------------------------------------|
G|----------------1--2--4-----------------------------| (3x)
D|-------1--2--4--------------------------------------|
A|-2--4-----------------------------------------------|
E|----------------------------------------------------|

Parte 2 de 7

E|----------------------------------------------------|
B|----------------------------------------------------|
G|----------------------------------------------------|
D|-------------------1--2-----------------------------|
A|----------0--2--4-----------------------------------|
E|-0--2--4--------------------------------------------|

Parte 3 de 7

   C
E|-0--------------------------------------------------|
B|-1--------------------------------------------------|
G|-0--------------------------------------------------|
D|-2--------------------------------------------------|
A|-3--------------------------------------------------|
E|----------------------------------------------------|

Parte 4 de 7

E|----------------------------------------------------|
B|----------------------------------------------------|
G|----------------------------------------------------|
D|-------------------1--2-----------------------------|
A|----------0--2--4-----------------------------------|
E|-0--2--4--------------------------------------------|

Parte 5 de 7

E|----------------------------------------------------|
B|----------------------------------------------------|
G|----------------1--2--4-----------------------------|
D|-------1--2--4--------------------------------------|
A|-2--4-----------------------------------------------|
E|----------------------------------------------------|

Parte 6 de 7

E|----------------------------------------------------|
B|----------------------------------------------------|
G|----------------------------------------------------|
D|-------------------1--2-----------------------------|
A|----------0--2--4-----------------------------------|
E|-0--2--4--------------------------------------------|

Parte 7 de 7

   C
E|-0--------------------------------------------------|
B|-1--------------------------------------------------|
G|-0--------------------------------------------------|
D|-2--------------------------------------------------|
A|-3--------------------------------------------------|
E|----------------------------------------------------|

B             E
  Oh no, not me
    C              E
We never lost control
        B       E
You're face to face
          C                G#
With the man who sold the world

[Solo 1] G#  C#m  E  C#m

Parte 1 de 2

E|----------------------------------------------------|
B|----------------------------------------------------|
G|-1--1--1------1h2p1---------------------------------| (5x)
D|----------4----------4------------------------------|
A|----------------------------------------------------|
E|----------------------------------------------------|

Parte 2 de 2

E|----------------------------------------------------|
B|----------------------------------------------------|
G|-1--1--1------1h2p1-----1---------------------------|
D|----------4----------4------------------------------|
A|----------------------------------------------------|
E|----------------------------------------------------|

[Primeira Parte]

                         G#
I laughed and shook his hand
                          C#m
And made my way back home
                          G#
I searched from form and land
                             E
for years and years I roamed
                       B   
I gazed the gazeless stare 
                     G#
At all the millions hills
                   C#m
I must have died alone

A long long time ago

[Refrão]

Parte 1 de 7

E|----------------------------------------------------|
B|----------------------------------------------------|
G|----------------1--2--4-----------------------------| (3x)
D|-------1--2--4--------------------------------------|
A|-2--4-----------------------------------------------|
E|----------------------------------------------------|

Parte 2 de 7

E|----------------------------------------------------|
B|----------------------------------------------------|
G|----------------------------------------------------|
D|-------------------1--2-----------------------------|
A|----------0--2--4-----------------------------------|
E|-0--2--4--------------------------------------------|

Parte 3 de 7

   C
E|-0--------------------------------------------------|
B|-1--------------------------------------------------|
G|-0--------------------------------------------------|
D|-2--------------------------------------------------|
A|-3--------------------------------------------------|
E|----------------------------------------------------|

Parte 4 de 7

E|----------------------------------------------------|
B|----------------------------------------------------|
G|----------------------------------------------------|
D|-------------------1--2-----------------------------|
A|----------0--2--4-----------------------------------|
E|-0--2--4--------------------------------------------|

Parte 5 de 7

E|----------------------------------------------------|
B|----------------------------------------------------|
G|----------------1--2--4-----------------------------|
D|-------1--2--4--------------------------------------|
A|-2--4-----------------------------------------------|
E|----------------------------------------------------|

Parte 6 de 7

E|----------------------------------------------------|
B|----------------------------------------------------|
G|----------------------------------------------------|
D|-------------------1--2-----------------------------|
A|----------0--2--4-----------------------------------|
E|-0--2--4--------------------------------------------|

Parte 7 de 7

   C
E|-0--------------------------------------------------|
B|-1--------------------------------------------------|
G|-0--------------------------------------------------|
D|-2--------------------------------------------------|
A|-3--------------------------------------------------|
E|----------------------------------------------------|

B              E
  Who knows, not me
    C              E
We never lost control
        B         E
You're face to face
          C
With the man who sold the world

[Solo 1 - Variação] G#  C#m 

Parte 1 de 2

E|----------------------------------------------------|
B|----------------------------------------------------|
G|-1--1--1------1h2p1---------------------------------| (3x)
D|----------4----------4------------------------------|
A|----------------------------------------------------|
E|----------------------------------------------------|

Parte 2 de 2

E|----------------------------------------------------|
B|----------------------------------------------------|
G|-1--1--1-----------1--------------------------------|
D|----------4--4--4-----------------------------------|
A|----------------------------------------------------|
E|----------------------------------------------------|

[Refrão]

Parte 1 de 7

E|----------------------------------------------------|
B|----------------------------------------------------|
G|----------------1--2--4-----------------------------| (3x)
D|-------1--2--4--------------------------------------|
A|-2--4-----------------------------------------------|
E|----------------------------------------------------|

Parte 2 de 7

E|----------------------------------------------------|
B|----------------------------------------------------|
G|----------------------------------------------------|
D|-------------------1--2-----------------------------|
A|----------0--2--4-----------------------------------|
E|-0--2--4--------------------------------------------|

Parte 3 de 7

   C
E|-0--------------------------------------------------|
B|-1--------------------------------------------------|
G|-0--------------------------------------------------|
D|-2--------------------------------------------------|
A|-3--------------------------------------------------|
E|----------------------------------------------------|

Parte 4 de 7

E|----------------------------------------------------|
B|----------------------------------------------------|
G|----------------------------------------------------|
D|-------------------1--2-----------------------------|
A|----------0--2--4-----------------------------------|
E|-0--2--4--------------------------------------------|

Parte 5 de 7

E|----------------------------------------------------|
B|----------------------------------------------------|
G|----------------1--2--4-----------------------------|
D|-------1--2--4--------------------------------------|
A|-2--4-----------------------------------------------|
E|----------------------------------------------------|

Parte 6 de 7

E|----------------------------------------------------|
B|----------------------------------------------------|
G|----------------------------------------------------|
D|-------------------1--2-----------------------------|
A|----------0--2--4-----------------------------------|
E|-0--2--4--------------------------------------------|

Parte 7 de 7

   C
E|-0--------------------------------------------------|
B|-1--------------------------------------------------|
G|-0--------------------------------------------------|
D|-2--------------------------------------------------|
A|-3--------------------------------------------------|
E|----------------------------------------------------|

B                 E
  Who knows, not me
    C              E
We never lost control
        B       E
You're face to face
          C
With the man who sold the world

[Solo 1 - Variação 2] G#  C#m  E  C#m 

Parte 1 de 2

E|----------------------------------------------------|
B|----------------------------------------------------|
G|-1--1--1------1h2p1---------------------------------| (5x)
D|----------4----------4------------------------------|
A|----------------------------------------------------|
E|----------------------------------------------------|

Parte 2 de 2

E|----------------------------------------------------|
B|----------------------------------------------------|
G|-1--1--1--------------------------------------------|
D|----------4-----------------------------------------|
A|----------------------------------------------------|
E|----------------------------------------------------|

[Solo 2] G#  C#m  E  C#m (2x)
         G#  C#m  E

Parte 1 de 11

E|----------------------------------------------------|
B|----------------------------------------------------|
G|-1/8----8--8----8--8--8--8----8--8----8--8--8-------|
D|----------------------------------------------------|
A|----------------------------------------------------|
E|----------------------------------------------------|

Parte 2 de 11

E|----------------------------------------------------|
B|----------------------------------------------------|
G|-1--1--1------1h2p1-----1--1--1---------------------|
D|----------4----------4-----------4------------------|
A|----------------------------------------------------|
E|----------------------------------------------------|

Parte 3 de 11

E|----------------------------------------------------|
B|----------------------------------------------------|
G|-1/9----9--9----9--9--9--9----9--9----9--9\8--8\6---|
D|----------------------------------------------------|
A|----------------------------------------------------|
E|----------------------------------------------------|

Parte 4 de 11

E|----------------------------------------------------|
B|----------------------------------------------------|
G|-6----6--6--6--6----6--6----6--6--6---6/8-----------|
D|----------------------------------------------------|
A|----------------------------------------------------|
E|----------------------------------------------------|

Parte 5 de 11

E|----------------------------------------------------|
B|----------------------------------------------------|
G|-8--8----8--8--8--8----8--8----8--8--8--------------|
D|----------------------------------------------------|
A|----------------------------------------------------|
E|----------------------------------------------------|

Parte 6 de 11

E|----------------------------------------------------|
B|----------------------------------------------------|
G|-1--1--1------1h2p1-----1--1--1---------------------|
D|----------4----------4-----------4------------------|
A|----------------------------------------------------|
E|----------------------------------------------------|

Parte 7 de 11

E|----------------------------------------------------|
B|----------------------------------------------------|
G|-1/9----9--9----9--9--9--9----9--9----9--9\11--8-6--|
D|----------------------------------------------------|
A|----------------------------------------------------|
E|----------------------------------------------------|

Parte 8 de 11

E|----------------------------------------------------|
B|----------------------------------------------------|
G|-6----6--6--6--6----6--6----6--6--6---6/8-----------|
D|----------------------------------------------------|
A|----------------------------------------------------|
E|----------------------------------------------------|

Parte 9 de 11

E|----------------------------------------------------|
B|----------------------------------------------------|
G|-8--8----8--8--8--8----8--8----8--8--8--------------|
D|----------------------------------------------------|
A|----------------------------------------------------|
E|----------------------------------------------------|

Parte 10 de 11

E|----------------------------------------------------|
B|----------------------------------------------------|
G|-1--1--1------1h2p1---------------------------------|
D|----------4----------4------------------------------|
A|----------------------------------------------------|
E|----------------------------------------------------|

Parte 11 de 11

E|----------------------------------------------------|
B|----------------------------------------------------|
G|-1--1--1------1h2p1-----1---------------------------|
D|----------4----------4------------------------------|
A|----------------------------------------------------|
E|----------------------------------------------------|

0 comentários

mostrar mais comentários

Conseguiu tocar?

315 tocaram 10 ainda não

Grave um vídeo tocando The Man Who Sold The World e mande pra gente!

00:00 / 00:00
outros vídeos desta música
repetir qualidade Automático
Outros vídeos desta música
00:00 / 00:00
Automático
Capítulos
  • Início
  • Tocando a música
  • Acordes da Introdução
  • Tocando Introdução
  • Ensinando Solo 1
  • Ensinando Ritmo da Introdução
  • Acordes da Primeira Parte e Refrão
  • Tocando Primeira Parte e Refrão
  • Ensinando Refrão - Violão Solo
  • Ensinando Ritmo da Primeira Parte
  • Tocando Repetições
  • Ensinando Repetições - Violão Solo
  • Tocando Solo 2
  • Ensinando Solo 2
  • Encerramento
OK