Cifra Club

The Man Who Sold The World

Nirvana

Cifra: Principal
exibições 1.009.114
Tom: D# (com acordes na forma de E) Afinação: Eb Ab Db Gb Bb Eb
Introdução:
G#  C#m  E  C#m
Solo 1:
Solo 1 - Parte 1 de 2 (5x)
---------------------------------------------------
---------------------------------------------------
1--1--1------1h2p1---------------------------------
---------4----------4------------------------------
---------------------------------------------------
---------------------------------------------------
Solo 1 - Parte 2 de 2
---------------------------------------------------
---------------------------------------------------
1--1--1------1h2p1-----1---------------------------
---------4----------4------------------------------
---------------------------------------------------
---------------------------------------------------
Primeira Parte
                          G#
We passed upon the stairs
                         C#m
we spoke Of was and when
                        G#
Although I wasn't there
                         E
He said I was his friend
                        B                    G#
Which came as some surprise I spoke into his eyes
                     C#m
I thought you died alone, a long long time ago
(Refrão)
B             E
  Oh no, not me
    C              E
We never lost control
        B         E
You're face to face
          C                G#
With the man who sold the world

Riff Refrão:
Riff Refrão - Parte 1 de 5
---------------------------------------------------
---------------------------------------------------
---------------1--2--4-----------------------------
------1--2--4--------------------------------------
2--4-----------------------------------------------
---------------------------------------------------

Riff Refrão - Parte 2 de 5
---------------------------------------------------
---------------------------------------------------
---------------------------------------------------
------------------1--2-----------------------------
---------0--2--4-----------------------------------
0—2--4--------------------------------------------

Riff Refrão - Parte 3 de 7
C
↓↓  ↑↑↓↑

Riff Refrão - Parte 4 de 7
---------------------------------------------------
---------------------------------------------------
---------------------------------------------------
------------------1--2-----------------------------
---------0--2--4-----------------------------------
0—2--4--------------------------------------------

Riff Refrão - Parte 5 de 7
---------------------------------------------------
---------------------------------------------------
---------------1--2--4-----------------------------
------1--2--4--------------------------------------
2--4-----------------------------------------------
---------------------------------------------------

Riff Refrão - Parte 6 de 7
---------------------------------------------------
---------------------------------------------------
---------------------------------------------------
------------------1--2-----------------------------
---------0--2--4-----------------------------------
0--2--4--------------------------------------------

Riff Refrão - Parte 7 de 7
C
↓↓  ↑↑↓↑

G#  C#m  E  C#m

Solo 1:
Solo 1 - Parte 1 de 2 (5x)
---------------------------------------------------
---------------------------------------------------
1--1--1------1h2p1---------------------------------
---------4----------4------------------------------
---------------------------------------------------
---------------------------------------------------

Solo 1 - Parte 2 de 2
---------------------------------------------------
---------------------------------------------------
1--1--1------1h2p1-----1---------------------------
---------4----------4------------------------------
---------------------------------------------------
---------------------------------------------------

Primeira Parte com variação na letra:
                         G#
I laughed and shook his hand
                          C#m
And made my way back home
                          G#
I searched from form and land
                             E
for years and years I roamed
                       B                        G#
I gazed the gazeless stare at all the millions hills
                   C#m
I must have died alone, a long long time ago

Refrão:
B             E
  Oh no, not me
    C              E
We never lost control
        B         E
You're face to face
          C
With the man who sold the world
G#  C#m

Solo 1 com variação:
Repetições - Solo 1 - Parte 1 de 2
---------------------------------------------------
---------------------------------------------------
1--1--1------1h2p1---------------------------------
---------4----------4------------------------------
---------------------------------------------------
---------------------------------------------------
Repetições - Solo 1 - Parte 2 de 2 (variação)
---------------------------------------------------
---------------------------------------------------
1--1--1-----------1--------------------------------
---------4--4--4-----------------------------------
---------------------------------------------------
---------------------------------------------------

Refrão:
B             E
  Oh no, not me
    C              E
We never lost control
        B         E
You're face to face
          C
With the man who sold the world

(Solo 1 com variação)
Repetições 2 - Solo 1 - Parte 1 de 2
---------------------------------------------------
---------------------------------------------------
1--1--1------1h2p1---------------------------------
---------4----------4------------------------------
---------------------------------------------------
---------------------------------------------------

Repetições 2 - Solo 1 - Parte 2 de 2 (variação)
---------------------------------------------------
---------------------------------------------------
1--1--1--------------------------------------------
---------4-----------------------------------------
---------------------------------------------------
---------------------------------------------------

Solo 2:
G#  C#m  E  C#m (3x)

G#  C#m  E

Solo 2 - Parte 1 de 11
---------------------------------------------------
---------------------------------------------------
1/8----8--8----8--8--8--8----8--8----8--8--8-------
---------------------------------------------------
---------------------------------------------------
---------------------------------------------------

Solo 2 - Parte 2 de 11
---------------------------------------------------
---------------------------------------------------
1--1--1------1h2p1-----1--1--1----1-1--------------
---------4----------4-----------4------------------
---------------------------------------------------
---------------------------------------------------

Solo 2 - Parte 3 de 11
---------------------------------------------------
---------------------------------------------------
1/9----9--9----9--9--9--9----9--9----9--9--9\8--8\6
---------------------------------------------------
---------------------------------------------------
---------------------------------------------------

Solo 2 - Parte 4 de 11
---------------------------------------------------
---------------------------------------------------
6----6--6--6--6----6--6----6--6--6---6/8-----------
---------------------------------------------------
---------------------------------------------------
---------------------------------------------------

Solo 2 - Parte 5 de 11
---------------------------------------------------
---------------------------------------------------
8--8----8--8--8--8----8--8----8--8--8--------------
---------------------------------------------------
---------------------------------------------------
---------------------------------------------------

Solo 2 - Parte 6 de 11
---------------------------------------------------
---------------------------------------------------
1--1--1------1h2p1-----1--1--1---------------------
---------4----------4-----------4------------------
---------------------------------------------------
---------------------------------------------------

Solo 2 - Parte 7 de 11
---------------------------------------------------
---------------------------------------------------
1/9----9--9----9--9--9--9----9--9----9--9--9\8--8\6
---------------------------------------------------
---------------------------------------------------
---------------------------------------------------

Solo 2 - Parte 8 de 11
---------------------------------------------------
---------------------------------------------------
6----6--6--6--6----6--6----6--6--6---6/8-----------
---------------------------------------------------
---------------------------------------------------
---------------------------------------------------

Solo 2 - Parte 9 de 11
---------------------------------------------------
---------------------------------------------------
8--8----8--8--8--8----8--8----8--8--8--------------
---------------------------------------------------
---------------------------------------------------
---------------------------------------------------

Solo 2 - Parte 10 de 11
---------------------------------------------------
---------------------------------------------------
1--1--1------1h2p1---------------------------------
---------4----------4------------------------------
---------------------------------------------------
---------------------------------------------------

Solo 1 - Parte 11 de 11
---------------------------------------------------
---------------------------------------------------
1--1--1------1h2p1-----1---------------------------
---------4----------4------------------------------
---------------------------------------------------
---------------------------------------------------

0 comentários

    mostrar mais comentários

    Conseguiu tocar?

    275tocaram5ainda não

    Grave um vídeo tocando The Man Who Sold The World e mande pra gente!

    00:00 / 00:00
    outros vídeos desta música
    repetirqualidadeautomática
    Outro vídeos desta música
      00:00 / 00:00
      automática
      Capítulos
      • Início
      • Tocando a música
      • Acordes da Introdução
      • Tocando Introdução
      • Ensinando Solo 1
      • Ensinando Ritmo da Introdução
      • Acordes da Primeira Parte e Refrão
      • Tocando Primeira Parte e Refrão
      • Ensinando Refrão - Violão Solo
      • Ensinando Ritmo da Primeira Parte
      • Tocando Repetições
      • Ensinando Repetições - Violão Solo
      • Tocando Solo 2
      • Ensinando Solo 2
      • Encerramento
      OK