Cifra Club

Black Hole Sun

Soundgarden

Cifra: Principal (violão e guitarra)
Tom: G
Afinação: Drop D

[Intro]

   Gsus4            Bb6(9)
E|----------------------------------------------------|
B|----------------------------------------------------|
G|-------5----------------5---------------------------|
D|-----5------5---------5-----------------------------|
A|---5----------5-----5-------------------------------|
E|-5--------------5-8---------------------------------|

   F5               E5
E|----------------------------------------------------|
B|----------------------------------------------------|
G|-------5----------------4---------------------------|
D|-----3------3---------2-----------------------------|
A|---3----------3-----2-------------------------------|
E|-3--------------0-2---------------------------------|

     Ebsus4           D7
E|----------------------------------------------------|
B|----------------------------------------------------|
G|---------1----------------2-------------------------|
D|-------1------1---------0---------------------------|
A|-----1----------1-----3-----------------------------|
E|-0-1--------------1-0-------------------------------|

[Primeiro Parte]

   G6                   Bb6        F5
E|-------12-------------------10---------13-----------|
B|----12-----12----12------11---------13-----13----13-|
G|-12-----------12------12---------10-----------10----|
D|----------------------------------------------------|
A|----------------------------------------------------|
E|----------------------------------------------------|

   Em           Eb                  Dsus4
E|----------12--------11------------------10----------|
B|-------12--------11-----11----11-----10-----10----10|
G|-10/12--------12-----------12-----12-----------12---|
D|----------------------------------------------------|
A|----------------------------------------------------|
E|----------------------------------------------------|

   G6        Bm(b5)          Ab
E|-------12-----------10-----------11-----------------|
B|----12-----------12-----------13--------------------|
G|-12--------12-10--------10-13-----------------------|
D|----------------------------------------------------|
A|----------------------------------------------------|
E|----------------------------------------------------|

      G6          Bb6
In my eyes, indisposed
        F5              Em
In disguise as no one knows
           Eb              Dsus4
Hides the face, lies the snake
     G6     Bm(b5)  Ab
The sun in my dis-grace
         G6            Bb6
Boiling heat, summer stench
             F5                 Em
'Neath the black the sky looks dead
         Eb                Dsus4
Call my name through the cream
          G6          Bm(b5)  Ab
And I'll hear you, scream   again

[Refrão]

   Ebsus4          D7
E|----------------------------------------------------|
B|----------------------------------------------------|
G|-------1---------------2----------------------------|
D|-----1-----1---------0-----0------------------------|
A|---1---------1-----3---------3----------------------|
E|-1-------------1-0-------------0--------------------|

     G5      G5/F  Bb
E|----------------------------------------------------|
B|-------------------------3--------------------------|
G|-------0-------0-------3----------------------------|
D|-----0-------0-------3------------------------------|
A|-------------------1--------------------------------|
E|-3/5-----5-3-----3----------------------------------|

   Ebsus4          D7
E|----------------------------------------------------|
B|----------------------------------------------------|
G|-------1---------------2----------------------------|
D|-----1-----1---------0-----0------------------------|
A|---1---------1-----3---------3----------------------|
E|-1-------------1-0-------------0--------------------|

   C             D
E|---------------2------------------------------------|
B|-5h6p5---------3------------------------------------|
G|-5------5------2------------------------------------|
D|-5--------5----0------------------------------------|
A|-3--------------------------------------------------|
E|----------------------------------------------------|

            Ebsus4         D7
Black hole sun, won't you come
     G5    G5/F    Bb
And wash away the rain
            Ebsus4         D7
Black hole sun, won't you come
           C
Won't you come
           D
Won't you come

[Segunda Parte]

   G6                   Bb6        F5
E|-------12-------------------10---------13-----------|
B|----12-----12----12------11---------13-----13----13-|
G|-12-----------12------12---------10-----------10----|
D|----------------------------------------------------|
A|----------------------------------------------------|
E|----------------------------------------------------|

   Em           Eb                  Dsus4
E|----------12--------11------------------10----------|
B|-------12--------11-----11----11-----10-----10----10|
G|-10/12--------12-----------12-----12-----------12---|
D|----------------------------------------------------|
A|----------------------------------------------------|
E|----------------------------------------------------|

   G6        Bm(b5)          Ab
E|-------12-----------10-----------11-----------------|
B|----12-----------12-----------13--------------------|
G|-12--------12-10--------10-13-----------------------|
D|----------------------------------------------------|
A|----------------------------------------------------|
E|----------------------------------------------------|

       G6             Bb6
Stuttering, cold and damp
           F5               Em
Steal the warm wind tired friend
           Eb              Dsus4
Times are gone for honest men
               G6      Bm(b5)    Ab
And sometimes far too long for snakes
        G6              Bb6
In my shoes a walking sleep
       F5               Em
And my youth I pray to keep
        Eb         Dsus4
Heaven send hell away
        G6        Bm(b5)  Ab
No one sings like you anymore

[Refrão]

   Ebsus4          D7
E|----------------------------------------------------|
B|----------------------------------------------------|
G|-------1---------------2----------------------------|
D|-----1-----1---------0-----0------------------------|
A|---1---------1-----3---------3----------------------|
E|-1-------------1-0-------------0--------------------|

     G5      G5/F  Bb
E|----------------------------------------------------|
B|-------------------------3--------------------------|
G|-------0-------0-------3----------------------------|
D|-----0-------0-------3------------------------------|
A|-------------------1--------------------------------|
E|-3/5-----5-3-----3----------------------------------|

   Ebsus4          D7
E|----------------------------------------------------|
B|----------------------------------------------------|
G|-------1---------------2----------------------------|
D|-----1-----1---------0-----0------------------------|
A|---1---------1-----3---------3----------------------|
E|-1-------------1-0-------------0--------------------|

   C                 Bb
E|----------------------------------------------------|
B|-5----5h6p5--------3--------------------------------|
G|-5----------5------3---3---3------------------------|
D|-5------------5----3-----3--------------------------|
A|-3-----------------1--------------------------------|
E|----------------------------------------------------|

   Ebsus4          D7
E|----------------------------------------------------|
B|----------------------------------------------------|
G|-------1---------------2----------------------------|
D|-----1-----1---------0-----0------------------------|
A|---1---------1-----3---------3----------------------|
E|-1-------------1-0-------------0--------------------|

     G5      G5/F  Bb
E|----------------------------------------------------|
B|-------------------------3--------------------------|
G|-------0-------0-------3----------------------------|
D|-----0-------0-------3------------------------------|
A|-------------------1--------------------------------|
E|-3/5-----5-3-----3----------------------------------|

   Ebsus4          D7
E|----------------------------------------------------|
B|----------------------------------------------------|
G|-------1---------------2----------------------------|
D|-----1-----1---------0-----0------------------------|
A|---1---------1-----3---------3----------------------|
E|-1-------------1-0-------------0--------------------|

            Ebsus4         D7
Black hole sun, won't you come
     G5    G5/F    Bb
And wash away the rain
            Ebsus4         D7
Black hole sun, won't you come
           C   Bb
Won't you come

            Ebsus4         D7
Black hole sun, won't you come
     G5    G5/F    Bb
And wash away the rain
            Ebsus4         D7
Black hole sun, won't you come

   C                Bb                 D
E|----------------------------------------------------|
B|-5------5h6p5-----3------3h4p3-------7-7-7-7--------|
G|-5------------5---3------------3-----7-7-7-7--------| (4x)
D|-5--------------5-3--------------3---7-7-7-7--------|
A|-3----------------1------------------5-5-5-5--------|
E|----------------------------------------------------|

           C
Won't you come
            Bb
Black hole sun
            D
Black hole sun
           C
Won't you come
            Bb
Black hole sun
            D
Black hole sun

           C
Won't you come
            Bb
Black hole sun
            D
Black hole sun
           C
Won't you come
            Bb
Black hole sun
            D
Black hole sun

[Solo - 6x]

(Guitarra Base)

E|---------------------------3--3-3-------------------|
B|---------------------------3--3-3-------------------|
G|---------------------------4--4-4-------------------|
D|---------------------------3--3-3-------------------|
A|--2h3-2--0--2/3------------3--3-3-------------------|
E|----------------5--4---3---3--3-3-------------------|

[Terceira Parte]

   G6                   Bb6        F5
E|-------12-------------------10---------13-----------|
B|----12-----12----12------11---------13-----13----13-|
G|-12-----------12------12---------10-----------10----|
D|----------------------------------------------------|
A|----------------------------------------------------|
E|----------------------------------------------------|

   Em          
E|----------12----------------------------------------|
B|-------12-------------------------------------------|
G|-10/12----------------------------------------------|
D|----------------------------------------------------|
A|----------------------------------------------------|
E|----------------------------------------------------|

         G6             Bb6  
Hang my head, drown my fear
         F              Em
Till you all just disappear

[Refrão]

   Ebsus4          D7
E|----------------------------------------------------|
B|----------------------------------------------------|
G|-------1---------------2----------------------------|
D|-----1-----1---------0-----0------------------------|
A|---1---------1-----3---------3----------------------|
E|-1-------------1-0-------------0--------------------|

     G5      G5/F  Bb
E|----------------------------------------------------|
B|-------------------------3--------------------------|
G|-------0-------0-------3----------------------------|
D|-----0-------0-------3------------------------------|
A|-------------------1--------------------------------|
E|-3/5-----5-3-----3----------------------------------|

   Ebsus4          D7
E|----------------------------------------------------|
B|----------------------------------------------------|
G|-------1---------------2----------------------------|
D|-----1-----1---------0-----0------------------------|
A|---1---------1-----3---------3----------------------|
E|-1-------------1-0-------------0--------------------|

   C                 Bb
E|----------------------------------------------------|
B|-5----5h6p5--------3----3h4p3-----------------------|
G|-5----------5------3----------3---------------------|
D|-5------------5----3------------3-------------------|
A|-3-----------------1--------------------------------|
E|----------------------------------------------------|

   Ebsus4          D7
E|----------------------------------------------------|
B|----------------------------------------------------|
G|-------1---------------2----------------------------|
D|-----1-----1---------0-----0------------------------|
A|---1---------1-----3---------3----------------------|
E|-1-------------1-0-------------0--------------------|

     G5      G5/F  Bb
E|----------------------------------------------------|
B|-------------------------3--------------------------|
G|-------0-------0-------3----------------------------|
D|-----0-------0-------3------------------------------|
A|-------------------1--------------------------------|
E|-3/5-----5-3-----3----------------------------------|

   Ebsus4          D7
E|----------------------------------------------------|
B|----------------------------------------------------|
G|-------1---------------2----------------------------|
D|-----1-----1---------0-----0------------------------|
A|---1---------1-----3---------3----------------------|
E|-1-------------1-0-------------0--------------------|

            Ebsus4         D7
Black hole sun, won't you come
     G5    G5/F    Bb
And wash away the rain
            Ebsus4         D7
Black hole sun, won't you come
           C   Bb
Won't you come

            Ebsus4         D7
Black hole sun, won't you come
     G5    G5/F    Bb
And wash away the rain
            Ebsus4         D7
Black hole sun, won't you come

   C                Bb                 D
E|----------------------------------------------------|
B|-5------5h6p5-----3------3h4p3-------7-7-7-7--------|
G|-5------------5---3------------3-----7-7-7-7--------| (4x)
D|-5--------------5-3--------------3---7-7-7-7--------|
A|-3----------------1------------------5-5-5-5--------|
E|----------------------------------------------------|

           C
Won't you come
            Bb
Black hole sun
            D
Black hole sun
           C
Won't you come
            Bb
Black hole sun
            D
Black hole sun

           C
Won't you come
            Bb
Black hole sun
            D
Black hole sun
           C
Won't you come
            Bb
Black hole sun
            D
Black hole sun

           C   Bb  D
Won't you come

           C   Bb  D
Won't you come

[Final]

E|---------------------------3--3---------------------|
B|---------------------------3--3---------------------|
G|---------------------------4--4---------------------|
D|---------------------------3--3---------------------|
A|--2h3-2--0--2/3------------3--3----3/5-5------------|
E|----------------5--4---3---3--3----3/5-5------------|
exibições 203.380
Acordes para:
    Composição: Chris Cornell Colaboração e revisão:
    • Lucas Kappaun
    • Danylo Santos

    0 comentários

    mostrar mais comentários

    Conseguiu tocar?

    13 tocaram 4 ainda não

    Grave um vídeo tocando Black Hole Sun e mande pra gente!

    00:00 / 00:00
    outros vídeos desta música
    repetir qualidade Automático
    Outros vídeos desta música
    00:00 / 00:00
    Automático
    OK