Cifra Club

Black Hole Sun

Soundgarden

Cifra: Principal (violão e guitarra)
tom: G
Afinação Drop D: D A D G B E

[Intro] G4  A#6(9)  F5  E5  D#4  D7(5)

[Tab - Intro]

Parte 1 de 3
   G4                     A#6(9)
E|-----------------------------------------------------|
B|-----------------------------------------------------|
G|----------5----------------------5-------------------|
D|-------5-------5--------------5-------5--------------|
A|----5-------------5--------5-------------5-----------|
E|-5-------------------5--8-------------------8--------|

Parte 2 de 3
   F5                     E5
E|-----------------------------------------------------|
B|-----------------------------------------------------|
G|----------5----------------------4-------------------|
D|-------3-------3--------------2-------2--------------|
A|----3-------------3--------2-------------2-----------|
E|-3-------------------0--2-------------------0--------|

Parte 3 de 3
   D#4                       D7(5)
E|-----------------------------------------------------|
B|-----------------------------------------------------|
G|----------1-------------------------2----------------|
D|-------1-------1-----------------0-------------------|
A|----1-------------1-----------3----------------------|
E|-1-------------------1--1--0-------------------------|

[Tab - Solo Intro]

E|-----------------------------------------------------|
B|-8/15~--15/17--10/11\10\8~---8/11~----11\/15~--------|
G|-----------------------------------------------------|
D|-----------------------------------------------------|
A|-----------------------------------------------------|
E|-----------------------------------------------------|

[Primeira Parte]

[Tab - Primeira Parte]

Parte 1 de 4
   G6                          Gm
E|---------12--------------------------10--------------|
B|-----12--------12------12--------11------------------|
G|-12----------------12--------12----------------------|
D|-----------------------------------------------------|
A|-----------------------------------------------------|
E|-----------------------------------------------------|

Parte 2 de 4
   F5                          Em
E|---------13--------------------------12--------------|
B|-----13--------13------13--------12------------------|
G|-10----------------10-------/12----------------------|
D|-----------------------------------------------------|
A|-----------------------------------------------------|
E|-----------------------------------------------------|

Parte 3 de 4
   D#                          D4/G       
E|---------11--------------------------10--------------|
B|-----11--------11------11--------10--------10------10|
G|-12----------------12--------12----------------12----|
D|-----------------------------------------------------|
A|-----------------------------------------------------|
E|-----------------------------------------------------|

Parte 4 de 4
   G6              G7/F            G#               
E|---------12--------------10--------------11----------|
B|-----12--------------12--------------13--------------|
G|-12----------12--10----------10--13------------------|
D|-----------------------------------------------------|
A|-----------------------------------------------------|
E|-----------------------------------------------------|

      G6                     
In my eyes
      Gm
Indisposed
    F5                Em      
In disguises no one knows
           D#
Hides the face
           D4/G
Lies the snake
         G6     G7/F   G#               
And the sun in my disgrace
          G6                     
Boiling heat
         Gm
Summer stench
            F5                  Em      
Neath the black, the sky looks dead
         D#
Call my name
              D4/G
Through the cream
          G6         G7/F  G#               
And I'll hear you scream again

[Refrão]

[Tab - Refrão]

Parte 1 de 4
   D#4                    D7(5)
E|-----------------------------------------------------|
B|-----------------------------------------------------|
G|----------1----------------------2-------------------|
D|-------1-------1--------------0-------0--------------|
A|----1-------------1--------3-------------3-----------|
E|-1-------------------1--0-------------------0--------|

Parte 2 de 4
   G5          F6(9)       A#
E|-----------------------------------------------------|
B|----------------------------------3------------------|
G|-------------------------------3-------3-------------|
D|-------5-----------5--------3-------------3----------|
A|----5-----------5--------1---------------------------|
E|-5--------5--3--------3----------------------0-------|

Parte 3 de 4
   D#4                    D7(5) 
E|-----------------------------------------------------|
B|-----------------------------------------------------|
G|----------1----------------------2-------------------|
D|-------1-------1--------------0-------0--------------|
A|----1-------------1--------3-------------3-----------|
E|-1-------------------1--0-------------------0--------|

Parte 4 de 4
   C                   D5
E|-----------------------------------------------------|
B|-5----5/6--5---------3-------------------------------|
G|-5------------5------2-------------------------------|
D|-5--------------5----0-------------------------------|
A|-3-------------------0-------------------------------|
E|---------------------0-------------------------------|

Parte 4 de 4 - Variação 1
   C                    A#
E|-----------------------------------------------------|
B|-5----5/6--5----------3----3/4-3---------------------|
G|-5------------5-------3-----------3------------------|
D|-5--------------5-----3--------------3---------------|
A|-3-----------------0--1------------------------------|
E|-----------------------------------------------------|

Parte 4 de 4 - Variação 2
   C                 A#               D 
E|------------------------------------2--2h3-2---------|
B|-5--5/6--5---------3--3/4--3--------3--------3-------|
G|-5---------5-------3---------3------2----------2-----|
D|-5-----------5-----3-----------3----0------------0---|
A|-3-------------0---1-------------1-------------------|
E|-----------------------------------------------------|

            D#4
Black hole sun
           D7(5)
Won't you come
     G5    F6(9)   A#
And wash away the rain?

            D#4
Black hole sun
           D7(5)
Won't you come
           C   D5
Won't you come

[Segunda Parte]

       G6
Stuttering
          Gm
Cold and damp
           F5                 Em
Steal the warm wind, tired friend
           D# 
Times are gone
            D4/G
For honest men
            G6      G7/F      G#       
Sometimes, far too long for snakes
        G6
In my shoes
          Gm
Walking sleep
       F5               Em
In my youth, I pray to keep
        D#
Heaven send
       D4/G
Hell away
        G6         G7/F   G#
No one sings like you anymore

[Refrão]

            D#4
Black hole sun
           D7(5)
Won't you come
     G5    F6(9)   A#
And wash away the rain?

            D#4
Black hole sun
           D7(5)
Won't you come
           C   A#
Won't you come

            D#4
Black hole sun
           D7(5)
Won't you come
     G5    F6(9)   A#
And wash away the rain?

            D#4
Black hole sun
           D7(5)
Won't you come
           C   A#  D
Won't you come             
           C   A#  D
Won't you come 
           C   A#  D
Won't you come 
           C   A#  D  
Won't you come 

[Solo] F6(9/11+)  G5  

[Tab - Riff Base Solo]

Parte 1 de 2 - 5x                    
                                  F6(9/11+)
E|--------------------------------3----3---------------|
B|--------------------------------3----3---------------|
G|--------------------------------4----4---------------|
D|--------------------------------3----3---------------|
A|-2/3--2----0---2/3--------------3----3---------------|
E|--------------------5--4---3----3----3---------------|

Parte 2 de 2   
                                  F6(9/11+)   G5                         
E|--------------------------------3----3---------------|
B|--------------------------------3----3---------------|
G|--------------------------------4----4---------------|
D|--------------------------------3----3----3/5---5----|
A|-2/3--2----0---2/3--------------3----3----3/5---5----|
E|--------------------5--4---3----3----3----3/5---5----|

[Tab - Solo]

Parte 1 de 9 
E|-----------------t17p15t17p15t17p15t...p13h15--------|
B|-15-15-15-15....-------------------------------------|
G|-14-14-14-14-----------------------------------------|
D|-12-12-12-12-----------------------------------------|
A|-----------------------------------------------------|
E|-----------------------------------------------------|

Parte 2 de 9
E|-----------------------------------------------------|
B|-----5-8-5-------5-8-5-------5-8-5-------------------|
G|-5-7-------7-5-7-------7-5-7-------7-5-7-------------|
D|-----------------------------------------------------|
A|-----------------------------------------------------|
E|-----------------------------------------------------|

Parte 3 de 9
E|-12-15-12-15-12-12-12-12\----------------------------|
B|-----------------------------------------------------|
G|-----------------------------------------------------|
D|-----------------------------------------------------|
A|-----------------------------------------------------|
E|-----------------------------------------------------|

Parte 4 de 9
E|-----5-8-5-------5-8-5-------------------------------|
B|-5-8-------8-5-8-------8-5-5-5-8b10r8--8/10~~--------|
G|-----------------------------------------------------|
D|-----------------------------------------------------|
A|-----------------------------------------------------|
E|-----------------------------------------------------|

Parte 5 de 9
E|----8\---8b10r8-----5-8-5-------5-8-5----------------|
B|----------------5-8-------8-5-8-------8-5-------5-8-5|
G|-5----------------------------------------7-5-7------|
D|-----------------------------------------------------|
A|-----------------------------------------------------|
E|-----------------------------------------------------|

Parte 6 de 9
E|-----------------------------------------------------|
B|-----------------------------------------------------|
G|-7-5-------5-7b8r7-----------------------------------|
D|-----7-5-7-------------------------------------------|
A|-----------------------------------------------------|
E|-----------------------------------------------------|

Parte 7 de 9
E|-------8--10--12---12-10-12b13r12--------------------|
B|-/8-10-----------------------------------------------|
G|-----------------------------------------------------|
D|-----------------------------------------------------|
A|-----------------------------------------------------|
E|-----------------------------------------------------|

E|-10-12b13r12--10-12b13r12----------------------------|
B|-----------------------------------------------------|
G|-----------------------------------------------------|
D|-----------------------------------------------------|
A|-----------------------------------------------------|
E|-----------------------------------------------------|

Parte 8 de 9
E|-10-12-13-12-10-10-12-13-12-10-12-13-15-13-12----12--|
B|----------------------------------------------15-----|
G|-----------------------------------------------------|
D|-----------------------------------------------------|
A|-----------------------------------------------------|
E|-----------------------------------------------------|

Parte 9 de 9
E|-----------------------------------------------------|
B|-15-13-12-13--12---13p12-----------------------------|
G|-------------------------14-12-14-12-----------------|
D|-----------------------------------------------------|
A|-----------------------------------------------------|
E|-----------------------------------------------------|

[Terceira Parte]

[Tab - Terceira Parte]

Parte 1 de 2
   G6                          Gm
E|---------12--------------------------10--------------|
B|-----12--------12------12--------11------------------|
G|-12----------------12--------12----------------------|
D|-----------------------------------------------------|
A|-----------------------------------------------------|
E|-----------------------------------------------------|

Parte 2 de 2
   F5                          Em
E|---------13--------------------------12--------------|
B|-----13--------13------13--------12------------------|
G|-10----------------10-------/12----------------------|
D|-----------------------------------------------------|
A|-----------------------------------------------------|
E|-----------------------------------------------------|

         G6
Hang my head
          Gm 
Drown my fear
         F5             Em  
Till you all just disappear

[Refrão]

            D#4
Black hole sun
           D7(5)
Won't you come
     G5    F6(9)   A#
And wash away the rain?

            D#4
Black hole sun
           D7(5)
Won't you come
           C   A#
Won't you come

            D#4
Black hole sun
           D7(5)
Won't you come
     G5    F6(9)   A#
And wash away the rain?

            D#4
Black hole sun
           D7(5)
Won't you come
           C   A#  D
Won't you come             
           C   A#  D
Won't you come 
           C   A#  D
Won't you come 
           C   A#  D
Won't you come 
           C   A#  D
Won't you come 
           C   A#  D
Won't you come 
           C   A#  D
Won't you come 
           C   A#  D
Won't you come

           D   F6(9/11+)  G5
Won't you come

[Tab - Riff Final]
                                  F6(9/11+)   G5  
E|--------------------------------3----3---------------|
B|--------------------------------3----3---------------|
G|--------------------------------4----4---------------|
D|--------------------------------3----3----3/5---5----|
A|-2/3--2----0---2/3--------------3----3----3/5---5----|
E|--------------------5--4---3----3----3----3/5---5----|
00:00 / 00:00
Outros vídeos desta música
Repetir
Outros vídeos desta música
Composição de Chris Cornell
Colaboração e revisão:
  • Tarsius Lima
  • Lucas Kappaun
  • Danylo Santos
311.602 exibições
  • Simplificar cifra
    • ½ Tom
    • A
    • Bb
    • B
    • C
    • Db
    • D
    • Eb
    • E
    • F
    • F#
    • G
    • Ab
  • Adicionar à lista

    0 comentários

    Ver todos os comentários

    Entre para oCifra Club PRO

    Tenha acesso a benefícios exclusivos no App e no Site

    • Chega de anúncios

    • Prioridade de compra em lançamentos

    • Mais recursos no app do Afinador

    • Atendimento Prioritário

    • Descontos nos produtos Cifra Club

    • Ajude a produzir mais conteúdo

    00:00 / 00:00
    Capítulos
    • Apresentação / Dicas
    • Tocando a Música
    • Ensinando Introdução - Base
    • Ensinando Primeira Parte
    • Ensinando Refrão
    • Tocando Solo
    • Ensinando Base Solo
    • Ensinando Solo 1
    • Tocando Terceira Parte
    • Ensinando Terceira Parte
    • Ensinando Riff Final
    • Ensinando Solo Final
    • Ensinando Solo Introdução
    • Encerramento

    Cifra Club Pro

    Aproveite o Cifra Club com benefícios exclusivos e sem anúncios
    Cifra Club Pro
    Aproveite o Cifra Club com benefícios exclusivos e sem anúncios
    OK