Pearl Jam

I am Mine

244.487 exibições
Tom: C
Riff:


E|---0---0--0---0--0--0-----0---0--0---0--0--0--0-|
B|---3---3--3---5--8--6-----5---5--5---6--5--1--3-|
G|---2---2--2---4--7--5-----4---4--4---5--4--0--2-|  2x
D|---0---0--0---0--0--0-----0---0--0---0--0--0--0-|
A|------------------------------------------------|
E|------------------------------------------------|


E|---0---0--0---0--0--0-----0---0--0---0--0--0--0-0-0-0|
B|---3---3--3---5--8--6-----5---5--5---5--5--5--2-2-2-2|
G|---2---2--2---4--7--5-----4---4--4---4--4--4--2-2-2-2|
D|---0---0--0---0--0--0-----0---0--0---0--0--0--2-2-2-2|
A|----------------------------------------------0-0-0-0|
E|-----------------------------------------------------|


Verso 1:

    D             F     C         G
The selfish, they're all standing in line
D         F           C              G
Faithing and hoping to buy themselves time,
D     F         C               G
Me, I figure as each breath goes by
  F       G      D D4 (alterne D e D4 ouça a música)
I only own my mind.

Verso 2:

    D           F              C           G
The north is to south what the clock is to time
D                        F               C           G
There's east and there's west and there's everywhere life
D            F         C              G
I know I was born and I know that I'll die
    F     G       D D4 D
The in between is mine
F G  D  (alterne D e D4 - ouça a música)
I am mine

Refrão:

       G           Am          D D4 D
And the feeling, it gets left behind
        G         Am           D D4 D
All the innocence lost at one time
      G     Am           D D4 D
Significant, behind the eyes
            C
There's no need to hide
We're safe tonight.

(Repete o riff)

Verso 3:

    D        F             C          G
The ocean is full cause everyone's crying
    D            F            C             G
The full moon is looking for friends at hightide
D                F               C          G
The sorrow grows bigger when the sorrow's denied
  F     G       D D4 D
I only know my mind
F G  D (alterne D e D4 - ouça a música)
I am mine

Refrão:

        G            Am        D D4 D
And the meaning, it gets left behind
        G         Am           D D4 D
All the innocents lost at one time
     G       C          D D4 D
Significant, behind the eyes
           C
There's no need to hide
We're safe tonight

        G             Am          D D4 D
And the feelings that get left behind
        G         Am             D D4 D
All the innocence broken with lies
     G           Am          D D4 D
Significance, between the lines
           C
We may need to hide
        G             Am          D D4 D
And the meanings that get left behind
        G         Am           D D4 D
All the innocents lost at one time
         G          Am          D D4 D
We're all different behind the eyes
          C
There's no need to hide

Solo:


E|--15----15----15----15------------------|----------------------------|
B|-----12----12----12----12/13--12--12--15|--15----------------15------|
G|----------------------------------------|------------12--14------12--|
D|----------------------------------------|----------------------------|
A|----------------------------------------|----------------------------|
E|----------------------------------------|----------------------------|


E|------------------15h14---------------|------14--------15--17--19----|
B|------15--13--12--------13-12---------|------------------------------|
G|--14--------------------------14b-14b-|------------------------------|
D|--------------------------------------|------------------------------|
A|--------------------------------------|------------------------------|
E|--------------------------------------|------------------------------|


E|--20-19-17--------------------------------|--------------------------|
B|-----------15h17h15h13/12/10--12--13--15--|--15b---15b---17b---15b---|
G|------------------------------------------|--------------------------|
D|------------------------------------------|--------------------------|
A|------------------------------------------|--------------------------|
E|------------------------------------------|--------------------------|


E|--------------------------|--------------------|--3---3---3---3---3--||
B|--15----13----12----10----|--8----7----8----8--|--3---3---3---3---3--||
G|--------------------------|--------------------|--0---0---0---0---0--||
D|--------------------------|--------------------|--0---0---0---0---0--||
A|--------------------------|--------------------|--2---2---2---2---2--||
E|--------------------------|--------------------|--3---3---3---3---3--||
    Composição: Eddie VedderColaboração e revisão:
    • Rodrigo
    • Rodrigo
    • Thiago
    • Du
    • +2

    Comentários 11

    • alisson.figueiredocarreiro alisson.figueiredocarreiro: Postado em 28/05/2015 12:35

      Começo meio bugado ¬¬

    • Diego Diego: Postado em 23/11/2014 15:42

      esse começo, queria video aula so por causa do começo kk

    • Gabriel Gabriel: Postado em 29/09/2013 12:24

      Faltou uma parte do solo ai .-.

    • indiliano.oliveira indiliano.oliveira: Postado em 17/02/2013 11:29

      Falta o solo do final :(

    • lorenzovecci lorenzovecci: Postado em 21/01/2013 20:04

      Esse som é sensacional mano! aushuahs e cifra mais detalhada que essa é impossível cara kkk

    • ir0g3r ir0g3r: Postado em 14/09/2012 20:46

      facil pacas... muito boa canção.

    • Mayonaise Mayonaise: Postado em 27/07/2012 18:52

      Há! 3ª vez que tento, finalmente entendi! *u* \o
      Faltou mesmo um pedaço! '~'

    • skider skider: Postado em 26/07/2011 22:21

      easy

    • Sollano Sollano: Postado em 22/01/2011 18:21

      a base do solo é o refrão, faltou só a parte depois do segundo refrão, q muda um pouco... realmente, tirem algumas duvidas com o guitar

    • $any $any: Postado em 16/12/2010 17:48

      ta estranha, mas ta facil.. recomendo baixar o arquivo de guitar pro para tirar algumas duvidas...!

      • $any $any: Postado em 16/12/2010 17:48

        falta o solo e/ou a base dele.

    conseguiu tocar?

    • Ricardo
    • Jennifer
    • Marco
    • Fernando
    • mateus.dalti
    • anamad
    • Hommer
    • •••
    Kadu Sasso2.054 visualizações
      ver covers de outras músicas »
      0:00 / 0:00

      Capítulos

        2 versões de baixoexibiçõescontribuição e correção
        play/pausefechar subir/descer velocidade
        6ª corda E5ª corda A4ª corda D3ª corda G2ª corda B1ª corda E
          acordes
          publicidad
          fechar
          ok