Still Lovin You

Scorpions

 Scorpions
Tom: A#
		
Intro 1:

       Gm       Gm/F     Gm/Eb             Eb7M            D7
E|---6--------6--------6------9-8-6--------6------------5--------------------:
B|-----8--------8--------8----------8--------8------------7------------------:
G|-------7--------7--------7-------------------7------------5----------------:
D|-0------------------------------------8--------8---7---------7-------------:
A|----------8--------6------------------6------------5-----------------------:
E|---------------------------------------------------------------------------:



       Gm       Gm/F     Gm/Eb                 Eb7M          D7
E|---6--------6--------6------9-8h9p8-6--------6-------------------8---------:
B|-----8--------8--------8---------------8-------8------------7--------------:
G|-------7--------7--------7-----------------------7------------5------------:
D|-0---------------------------------------8---------8---5-------------------:
A|----------8--------6---------------------6-------------5-------------------:
E|---------------------------------------------------------------------------:


Intro 2:


E|----3-------3-------3-----------------3-------------2----------------------:
B|------3-------3-------3-----------------3--------1-------------------------:
G|--------3-------3-------3---6-5-3---------3-------2------------------------:
D|----------3-----------------------5---------5--0---------------------------:
A|-5----------------6-----------------6--------------------------------------:
E|---------------------------------------------------------------------------:


Dedilhado 1(Verso 1):

       Gm
E|---6-----6-----6--:---6-----6-----6-:---6-----6-----6-:---6-----6------6---:
B|-----8-----8------:-----8-----8-----:-----8-----8-----:-----8-----8--------:
G|-------7-----7----:-------7-----7---:-------7-----7---:-------7-----7------:
D|-0----------------:-0---------------:-0---------------:-0------------------:
A|------------------:-----------------:-----------------:--------------------:
E|------------------:-----------------:-----------------:--------------------:




       A                                    D
E|---9-----9-----9--:----9-----9----9-:---2-----2-----2-:---2-----2-----2----:
B|-----10----10-----:------10---10----:-----3-----3-----:-----3-----3--------:
G|-9-----9-----9----:--------9-----9--:-------2-----2---:-------2-----2------:
D|------------------:-11--------------:-0---------------:-0------------------:
A|------------------:-----------------:-----------------:--------------------:
E|------------------:-----------------:-----------------:--------------------:



       Gm
E|---6-----6-----6--:---6-----6-----6-:---6-----6-----6-:---6-----6------6---:
B|-----8-----8------:-----8-----8-----:-----8-----8-----:-----8-----8--------:
G|-------7-----7----:-------7-----7---:-------7-----7---:-------7-----7------:
D|-0----------------:-0---------------:-0---------------:-0------------------:
A|------------------:-----------------:-----------------:--------------------:
E|------------------:-----------------:-----------------:--------------------:



       A                                    D
E|---9-----9-----9--:----9-----9----9-:---2-----2---2h3-2:
B|-----10---10------:------10---10----:-----3-----3------:
G|-9-----9-----9----:--------9-----9--:-------2----------:
D|------------------:-11--------------:-0----------------:
A|------------------:-----------------:------------------:
E|------------------:-----------------:------------------:


Dedilhado 2 (Verso 1):


E|--------------3---:--------------3---:--------------3---:--------------3---:
B|----------3-------:----------3-------:----------3-------:----------3-------:
G|------3-----3-----:------3-----3-----:------3-----3-----:------3-----3-----:
D|----5---5---------:----5---5---------:----5---5---------:----5---5---------:
A|--5---------------:--5---------------:--5---------------:--5---------------:
E|------------------:------------------:------------------:------------------:



E|--------------0---:--------------0---:--------------2---:------------------:
B|----------2-------:----------2-------:------3---3-------:------3---3-------:
G|------2-----2-----:------2-----2-----:----2---2---2-----:----2---2----2----:
D|----2---2---------:----2---2---------:--0---------------:--0-------------0-:
A|--0---------------:--0---------------:------------------:------------------:
E|------------------:------------------:------------------:------------------:


Intro 1
Intro 2 (x2)
Solo 1:
Parte 1:


E|----------------------------------------------------------------------:
B|----------------------------------------------------------------------:
G|------2-3-5~--3p2-3~--2---2h3-2~----2-3-5-3-5b7-----------------------:
D|-3/5~-------------------5---------5-----------------------------------:
A|----------------------------------------------------------------------:
E|----------------------------------------------------------------------:


Parte 2:


E|---------------------------------------13-13b15-----------------------:
B|---------10-11-13~--12p11-12~-------11-----------13b15r13p11----13b15-:
G|-10/12~-----------------------10/12--------------------------12-------:
D|----------------------------------------------------------------------:
A|----------------------------------------------------------------------:
E|----------------------------------------------------------------------:


Verso 2:
(Dedilhado 1)
(Dedilhado 2)

Gm
Fight, babe, I'll fight To win back your love again.
          A                  D
I will be there, I will be there.
Gm
Love, only love Can break down the walls someday.
          A                  D
I will be there, I will be there.

Refrão 1:


E|--------------:--------------:--------------:---------:
B|--------------:--------------:--------------:---------:
G|--------------:-----------5--:--------------:---------:
D|-----8--3-----:-----8--3--3--:-----5--7-----:--8--10--:
A|--5--6--1--3--:--5--6--1-----:--5--3--5--5--:--6--8---:
E|--3--------1--:--3-----------:--3--------3--:---------:


Riff 1:


E|--------------------------------------------:
B|--------------------------------------------:
G|--------------------------------------------:
D|--8-------------------------10----------10--:
A|--6\5---5h6~--5h6-5h6-5h6~--8\7---7h8~--8\--:
E|--------------------------------------------:


Gm     Eb
If we'd go again
   Bb                 F
All the way from the start.
 Gm      Eb
I would try to change
   Bb                       F
The things that killed our love.
   Gm          Cm                  D
Your pride has build a wall, so strong
                Gm
That I can't get through.
         Eb        (Riff 1)
Is there really no chance
   F
To start once again?
           Gm
I'm loving you.


Intro 1
Intro 2 (x2)
Solo 1 (Parte 2)


Verso 3:
Dedilhado 1
Dedilhado 2

Riff 2:
(Parte 1)                      (Parte 2)

E|---------------------------:----------------------------------:
B|-----------------5b6-------:----------------5b6-5b6-----------:
G|----------3------5b6-------:----------3-----5b6-5b6r5p3-------:
D|------3-5---5~--------5-3~-:------3-5---5~---------------5-3~-:
A|--3-5----------------------:--3-5-----------------------------:
E|---------------------------:----------------------------------:


Riff 3:


E|---9/10--9/10---:
B|--10/11-10/11---:


Gm           (Riff 2 Parte 1)                  (Riff 3)
Try, baby try To trust in my love again.
         A                D
I will be there, I will be there.
Gm            (Riff 2 Parte 2)
Love, our love Just shouldn't be thrown away.
         A                D
I will be there, I will be there.

Refrão 2


E|--------------:--------------:---------------:---------:
B|--------------:--------------:---------------:---------:
G|--------------:-----------5--:---------------:---------:
D|-----8--3-----:-----8--3--3--:-----5--7------:--8--10--:
A|--5--6--1--3--:--5--6--1-----:--5--3--5--5-3-:--6--8---:
E|--3--------1--:--3-----------:--3--------3-1-:---------:


Gm     Eb
If we'd go again
   Bb                 F
All the way from the start.
 Gm      Eb
I would try to change
   Bb                       F
The things that killed our love.
   Gm          Cm                  D
Your pride has build a wall, so strong
                Gm
That I can't get through.
         Eb        (Riff 1)
Is there really no chance
   F
To start once again?

Refrão 2:


E|--------------:--------------:---------------------:---------:
B|--------------:--------------:---------------------:---------:
G|--------------:-----------5--:---------------------:---------:
D|-----8--3-----:-----8--3--3--:--------5--7-5-7-----:--8--10--:
A|--5--6--1--3--:--5--6--1-----:--5-3-5-3--5-3-5--5--:--6--8---:
E|--3--------1--:--3-----------:--3-1-3-----------3--:---------:


Riff 4:


E|---------------------:
B|---------------------:
G|---------------3-----:
D|-------------3---5~--:
A|-------1-3/5---------:
E|-1-1-3---------------:


Riff 5:


E|------------------:
B|-13b15r13p12p10~--:
G|------------------:
D|------------------:
A|------------------:
E|------------------:


Riff 6:


E|-------------------------------:
B|-------------------------------:
G|---------------3-5-5b7r5-3-5---:
D|-----------3-5-----------------:
A|-----1-3/5---------------------:
E|-1-3---------------------------:


Gm     Eb
If we'd go again
   Bb                F    (Riff 4)
All the way from the start.
 Gm      Eb
I would try to change
   Bb              (Riff 5)         F
The things that killed our love.
        Gm          Cm
Yes, I've hurt your pride, and I know
                    Gm
What you've been through
           Eb              (Riff 1 + Riff 6)
You should give me a chance
   F
This can't be the end

                   Gm Eb (Solo 2) Bb F
I'm still loving you,
                   Gm Eb (Solo 3 Parte 1) Bb F
I'm still loving you,
                   Gm (Solo 3 Parte 2) Eb Bb (Solo 4)
I'm still loving you,
                F
I need your Love
                    Gm Eb Bb
I'm still loving you
                      F
Still loving you, Baby

(Gm Eb Bb F) x2

               Gm Eb Bb
Still loving you.
                F
I need your love
                Gm Eb Bb
Still Loving you
                Gm Eb Bb F
I need your love...

(Final)

Intro 1
Intro 2


Solo 2:


E|-13b15-13b15r13-10----------13-------:
B|-------------------13b15r13----13b15\:
G|-------------------------------------:
D|-------------------------------------:
A|-------------------------------------:
E|-------------------------------------:


Solo 3:
(Parte 1)

E|-----17-18-20-20b22-20b22r20-18-20\---:
B|--20----------------------------------:
G|--------------------------------------:
D|--------------------------------------:
A|--------------------------------------:
E|--------------------------------------:


(Parte 2)

E|-15--------------------------------:
B|-18b20----------16b18-16--18b20-18-:
G|----------14-15--------------------:
D|-------17--------------------------:
A|-----------------------------------:
E|-----------------------------------:


Solo 4:


E|-20b22r20-18-20b22r20-18-20b22-:----15h17h18p17p15----------15h17h18p17h18p17-------:
B|-------------------------------:-15----------------17b20-15-------------------18-15-:
G|-------------------------------:----------------------------------------------------:
D|-------------------------------:----------------------------------------------------:
A|-------------------------------:----------------------------------------------------:
E|-------------------------------:----------------------------------------------------:



E|-----------------------------------------------------------------------------------------------:
B|-18-18-15h18p15---15h18p15---15h18p15---15h18p15---18-18-18-18-15h18p15----15h18p15----15h18p15:
G|---------------17---------17---------17---------17---------------------17----------17----------:
D|-----------------------------------------------------------------------------------------------:
A|-----------------------------------------------------------------------------------------------:
E|-----------------------------------------------------------------------------------------------:



E|------------------------------------------------------------------------------------------------:
B|----15h18p15----18b20-------15-16-18-15h16p15--15-16-15-----------------------------------------:
G|-17---------17-------17b19-------------------17--------17b19-15h17p15----15h17p15----15h17p15---:
D|----------------------------------------------------------------------17----------17----------17:
A|------------------------------------------------------------------------------------------------:
E|------------------------------------------------------------------------------------------------:



E|----------------:---------------------------------------------------------------:
B|-------20-------:---------------------------------------------------------------:
G|-17b19----17b19-:-3-5-3-5-3-5-3-5-3-5-3-5-3-5-3-------------------3-5-----------:
D|----------------:-------------------------------5-3-----------3-5-----5-3-------:
A|----------------:-----------------------------------5-3---3-5-------------5-3---:
E|----------------:---------------------------------------6---------------------3-:



E|-15-----------------------------------------------------------------------------:
B|-18b20-------15-16b18-16~-18b20-18-18b20-18~-13-11------------------------------:
G|-------16-17---------------------------------------14-12-11-12-12/14-12~--------:
D|--------------------------------------------------------------------------------:
A|--------------------------------------------------------------------------------:
E|--------------------------------------------------------------------------------:



E|-10h11p10-10h11p10-10h11p10-10h11p10-10h11p10h11p10h11p10h11p10h11p10h11p10h11p10h11p10--:
B|-----------------------------------------------------------------------------------------:
G|-----------------------------------------------------------------------------------------:
D|-----------------------------------------------------------------------------------------:
A|-----------------------------------------------------------------------------------------:
E|-----------------------------------------------------------------------------------------:



E|-15-----------------------------------------------------------------------------:
B|-18b20-------15-16b18-16~-18b20-18-18b20-18~-13-11------------------------------:
G|-------16-17---------------------------------------14-12-11-12-12/14-12~--------:
D|--------------------------------------------------------------------------------:
A|--------------------------------------------------------------------------------:
E|--------------------------------------------------------------------------------:



(SOLO SIMPLIFICADO)***************


E|-13b15-13b15r13-10----------13-------:
B|-------------------13b15r13----13b15\:
G|-------------------------------------:
D|-------------------------------------:
A|-------------------------------------:
E|-------------------------------------:



E|-----17-18-20-20b22-20b22r20-18-20\---:
B|--20----------------------------------:
G|--------------------------------------:
D|--------------------------------------:
A|--------------------------------------:
E|--------------------------------------:



E|-15-----------------------------------------------------------------------:
B|-18b20-------15-16b18-16~-18b20-18-18b20-18~-13-11------------------------:
G|-------16-17---------------------------------------14-12-11-12-12/14-12~--:
D|--------------------------------------------------------------------------:
A|--------------------------------------------------------------------------:
E|--------------------------------------------------------------------------:



E|-10h11p10-10h11p10-10h11p10-10h11p10-10-11-10-11-10-11-10-11-10-11-10-11-10-11-10-11-10---:
B|------------------------------------------------------------------------------------------:
G|------------------------------------------------------------------------------------------:
D|------------------------------------------------------------------------------------------:
A|------------------------------------------------------------------------------------------:
E|------------------------------------------------------------------------------------------:



E|-15-----------------------------------------------------------------------:
B|-18b20-------15-16b18-16~-18b20-18-18b20-18~-13-11------------------------:
G|-------16-17---------------------------------------14-12-11-12-12/14-12~--:
D|--------------------------------------------------------------------------:
A|--------------------------------------------------------------------------:
E|--------------------------------------------------------------------------:



E|-10h11p10-10h11p10-:---------------------------------------------------------------:
B|-------------------:---------------------------------------------------------------:
G|-------------------:-3-5-3-5-3-5-3-5-3-5-3-5-3-5-3-------------------3-5-----------:
D|-------------------:-------------------------------5-3-----------3-5-----5-3-------:
A|-------------------:-----------------------------------5-3---3-5-------------5-3---:
E|-------------------:---------------------------------------6---------------------3-:



E|-15-------------:
B|-18b20----------:
G|----------------:
D|----------------:
A|----------------:
E|----------------:
Texto Colunas
Alterar tom ½ tom ½ tom
afinação acordes na letra esconder tabs mais »

Comentários 68

  • MrCastonado MrCastonado: Postado em 14/08/2014 19:02

    como assim, aula de sertanejo tem todas.... mas classicos como esse..

  • Felipe Felipe: Postado em 05/08/2014 18:40

    VIDEO AULA AGR!!

  • luis luis: Postado em 05/08/2014 15:24

    essa musica e um clássico merece vídeo aula

  • Francine Francine: Postado em 30/06/2014 21:10

    Fácil ;)

  • Paulo ksk Paulo ksk: Postado em 22/02/2014 11:00

    Como não tem video aula de still loving you?

    • Jhonatas Jhonatas: Postado em 27/02/2014 10:58

      O incrível é que anita com aquele cú de música ganha vídeo aula e uma musica foda dessa não tem nem ao menos, uma digna, aula simplificada!

    • william97 william97: Postado em 02/03/2014 16:46

      Palhaçada isso, ate "Lepo Lepo" tem video aula, agora Scorpions nao tem!! ridículo isso

    • william97 william97: Postado em 02/03/2014 16:55

      No "cifras" tem a video aula de la jow

  • rebeca.liz rebeca.liz: Postado em 29/01/2014 15:21

    Afe o cifra club complica tudo, fui olhar no Tv Cifras e parece bem mais fácil do que o que está aí

  • caioalmeidadesouza caioalmeidadesouza: Postado em 17/12/2013 23:04

    N sou muito fã do tv cifras mas la tem video aula cade a de vcs?

Exibindo 10 de 68 comentários Mostrar mais ver todos »
Composição: Sabe quem é o compositor? Envie pra gente. Contribuição: Vitor Vogel Correções: jo.lara.7 , wesafadao e mais 7 »
  1. Até Você Voltar - Henrique e Juliano Manteve-se 101.546 exibições
  2. Domingo de Manhã - Marcos e Belutti Manteve-se 82.018 exibições
  3. Cuida Bem Dela - Henrique e Juliano Manteve-se 57.365 exibições
  4. Tudo Que Você Quiser - Luan Santana Manteve-se 49.298 exibições
  5. Choram As Rosas - Bruno e Marrone Manteve-se 48.522 exibições
  6. Recaídas - Henrique e Juliano Manteve-se 44.945 exibições
  7. Raridade - Anderson Freire Manteve-se 36.388 exibições
  8. Pra Você - Onze:20 Manteve-se 35.859 exibições
  9. Só Os Loucos Sabem - Charlie Brown Jr. Manteve-se 33.085 exibições
  10. Logo Eu - Jorge e Mateus Manteve-se 31.121 exibições
  1. Henrique e Juliano- Manteve-se 296.229 exibições
  2. Jorge e Mateus- Manteve-se 231.662 exibições
  3. Legião Urbana- Manteve-se 209.813 exibições
  4. Bruno e Marrone- Manteve-se 170.060 exibições
  5. Charlie Brown Jr.- Manteve-se 155.343 exibições
  6. Luan Santana- Manteve-se 151.312 exibições
  7. Fernandinho- Manteve-se 119.769 exibições
  8. Marcos e Belutti- Manteve-se 100.114 exibições
  9. Thalles Roberto- Manteve-se 93.296 exibições
  10. The Beatles- Manteve-se 82.801 exibições
Exibir acordes »

Cifras e tabs

Fórum Cifra Club

Aprenda

Cifra Club News

Mais Serviços Cifra Club ID

Studio Sol

©1996 - 2014 Cifra Club · o primeiro, maior e mais acessado do Brasil · 339 mil músicas · 6.3 milhões pessoas cadastradas

publicidade
fechar