Situações

Shirley Carvalhaes

 Shirley Carvalhaes
Tom: A
		
Intro: A D A E/G# F#m Bm D E D E

        A           E/G#        F#m
Horas difíceis você passa em conflito
         Bm7                    E
E já não sabe nem mesmo o que fazer
      C#                       F#m
O coração chora por não ter saída
     D             A            E            A   E
Situações mal resolvidas te arremessam à solidão
         A            E/G#        F#m
Tenha certeza que pra tudo tem um jeito
      Bm            D            E
E o Senhor não desistiu de te ajudar
         C#                         F#m
Se a tua luta é tempestade que não passa,
       D              A/C#  D        E              A
Não há o que Deus não faça pra dar vitória ao filho seu

D
Deus abre o caminho pra você passar
                                   A
Acalma a tempestade e a fúria do mar
E
Envia os seus anjos pra contigo lutar
              F#m
A bênção já é sua, basta acreditar
                D
A porta que Ele abre ninguém pode fechar
              E
A vitória é sua!
             A  E/G#  F#m
Comece a louvar a Deus!
    D       A   E
A Deus! A Deus!



E|-----------------------------------------|
B|-----------------------------------------|
G|-----------------------------------------|
D|---2----2-----------2---2----------2----4|
A|4-----4---------------4---------4-----4--|
E|-----------------------------------------|





E|-----------------------------------------|
B|-----------------------------------------|
G|---2----2-----------2---2----------------|
D|4-----4-----------4---4-----4-2-----0----|
A|--------------------------------------2--|
E|-----------------------------------------|





E|5--4--2-4-----------2-2-9-------7--5--4-7---5-5-----5-4-2|
B|---------------------------------------------------------|
G|---------------------------------------------------------|
D|---------------------------------------------------------|
A|---------------------------------------------------------|
E|---------------------------------------------------------|





E|2--4----5---0-0-------0-2---0-0-----0--------------------|
B|3--5----5---2-2-------2-3---2-2-----2---0---------------0|
G|----------------------------------------1-------2-------1|
D|------------------------------------------------2--------|
A|---------------------------------------------------------|
E|---------------------------------------------------------|



         A             E/G#      F#m
Quando a gente entrega tudo ao Senhor
        Bm         D        E
E compreende o seu modo de agir,
       C#                          F#m
Na paciência, ele possui as nossas vidas
      D            A/C#  D   E         A
Mesmo às causas perdidas Ele tem a solução

D
Deus abre o caminho pra você passar
                                   A
Acalma a tempestade e a fúria do mar
E
Envia os seus anjos pra contigo lutar
              F#m
A bênção já é sua, basta acreditar
                D
A porta que Ele abre ninguém pode fechar
              E
A vitória é sua!
             A  E/G#  F#m
Comece a louvar a Deus!
    D       E4  E
A Deus! A Deus!

A                              F#m
Ele abre a porta pra você passar!
                              D
Ele faz caminho no meio do mar!
                              E
E a tempestade ele pode acalmar!
        A    C#m   F#m   D   A/C# Bm
Ele é Deus...
E A
É Deus!
2.863 exibições

Comentários 0

Composição: Sabe quem é o compositor? Envie pra gente. Contribuição: Joémerson Correções: Joémerson »
Consegui tocarAinda não conseguiram tocar essa música. Seja o primeiro!
    Não consegui tocar
    Exibir acordes »
    publicidade
    fechar