Sol de Paz

Strike

 Strike
Tom: G
		
Intro: C9 G D Em C9 G D
  H.N....

D|---------|
A|--7------|
F|----7----|
C|------7--|
G|---------|
D|---------|



      C9            G           D             Em
D|-------------|-----------|---------------|-------------------|
A|-----3-------|------0----|--------7------|-------------8-----|
F|-------0-----|--------0--|-----7----7----|-----------0---0---|
C|---2---------|---0-------|---------------|-------------------|
G|-3-------0h2-|-----------|----5----------|----5--5/7-------7-|
D|-------------|-3---------|-3/5-----------|3/5----------------|



    C9            G H.N.  D
D|-------------|-------|-------------|
A|-----3-------|---12--|------7----7-|
F|-------0-----|---12--|---7----7--7-|
C|---2---------|---12--|-----------0-|
G|-3-------0h2-|-------|-5---------5-|
D|-------------|-3-----|-------------|


(Dedilhado)

      C9            G           D             Em
D|-------------|-----------|---------------|-------------------|
A|-----3-------|------0----|--------7------|-------------8-----|
F|-------0-----|--------0--|-----7----7----|-----------0---0---|
C|---2---------|---0-------|---------------|-------------------|
G|-3-------0h2-|-----------|----5----------|----5--5/7-------7-|
D|-------------|-3---------|-3/5-----------|3/5----------------|



    A9          C9        D
D|-----------|--------|---------------0-----|
A|-----0-----|---3----|------7----7------7--|
F|-----------|-----0--|---7----7----7------7|
C|---2-------|-2------|---------------------|
G|-0-----2-3-|--------|-5-------------------|
D|-----------|--------|---------------------|


(Riff)

D|------------|
A|------------|
F|-----0---0--|
C|------------|
G|-5/7---5----|
D|------------|


                C9
Se a vida andar tão louca
    G
Eu não vou me apegar
D            Em
A pequenas coisas
C9          G
Sei que o destino tende a
D                 Em
Surpreender as pessoas
   A9      C9
O mundo lá fora
D
Está em guerra sem porque
       A9     C9
Nos resta o agora
         D
Viva tudo o que há para viver

        C9                     G
Só peço que eu não perca a fé no amor
         D              Em
Pro novo sol de paz se abrir
                 C9            G
E no que a escuridão tentar te dominar
        D             (Riff)
Sempre uma luz irá surgir
         C9              G
Que prevaleça a fé até na dor
          D             Em
Pro novo sol de paz se abrir
               C9
E no que a escuridão tentar
  G           D
Eu hei de resistir

Vou adiante

Intro: C9 G D Em C9 G D

C9               G
Pouco tempo é o bastante pra
D                          Em
Eternizar momentos que nem são para sempre
C9                G
A vida é curta vou aproveitar
D                               (Riff)
Somos tão jovens mas nem sempre inconsequentes
A9        C
E ninguém sabe
D
Quando um simples tchau pode ser um adeus
      A9   C9              D
E nunca é tarde já que o futuro só pertence a Deus

            C9                     G
Só peço que eu não perca a fé no amor
         D              Em
Pro novo sol de paz se abrir
                 C9            G
E no que a escuridão tentar te dominar
        D             Em
Sempre uma luz irá surgir
         C9              G
Que prevaleça a fé até na dor
          D             Em
Pro novo sol de paz se abrir
               C9
E no que a escuridão tentar
  G           D
Eu hei de resistir

                C9         G
Só não deixe o tempo te abraçar
                   D                       Em
Na brisa leve sei que minha vibe não vão roubar
       C9              G               D
Espero encontrar aquela paz na fé que me move
                 C9                G
Mas se arrependa só daquilo que não fez
        D                Em
Ame como se fosse a última vez
             C9             G                D
Espero por encontrar aquela paz na fé que me move

                    C9                     G
Pra Deus eu peço que eu não perca a fé no amor
         D              Em
Pro novo sol de paz se abrir
                 C9            G
E no que a escuridão tentar te dominar
        D             (Riff)
Sempre uma luz irá surgir
         C9              G
Que prevaleça a fé até na dor
          D             Em
Pro novo sol de paz se abrir
               C9
E no que a escuridão tentar
  G           D
Eu hei de resistir, vou adiante
C     G                 D
Tão solto pelo mundo eu vou, vou adiante (4x)
C     G                 D
Tão solto pelo mundo eu vou

Comentários 13

  • Matheus Matheus: Postado em 18/11/2014 12:27

    ae galera do cifra club faz video aula ae.....
    ta muito bagunçado

  • Gabriel Gabriel : Postado em 16/05/2014 12:46

    kd os harmonicos? ta errada essa porra toda

  • Daniele Daniele: Postado em 05/05/2014 14:32

    otimo! minha corda estorou --'

  • mohmendes mohmendes: Postado em 21/04/2014 12:34

    Mas pra ficar igual a musica original a afinação é em D G C F A D, e os acordes são feitos em C9 G D Em, fica mais facil pra fazer o riff

  • Tiago Tiago: Postado em 31/03/2014 22:37

    o dedilhado ta correto na afinação indicada. Mas as notas na letra estão erradas. O correto é um tom abaixo.

  • pedroenrick16 pedroenrick16: Postado em 08/03/2014 12:12

    igual ta ai na tablatura , se alguém não viu

  • pedroenrick16 pedroenrick16: Postado em 08/03/2014 12:11

    pra mim deu certinho ... arrumei algumas partes de ouvido , mas ela é tocada com a afinação a um tom abaixo

  • Karol Karol: Postado em 18/02/2014 19:00

    Nus, está incorreta ^^ arrumem ae

  • eric.oliveira.1654 eric.oliveira.1654: Postado em 05/02/2014 22:33

    ta certo o riff ? achei meio estanho ele quando eu toquei

Exibindo 10 de 13 comentários Mostrar mais ver todos »
Composição: Marcelo Mancini
Esse não é o compositor? Avise-nos.
Contribuição: mohmendes Correções: Rafael , Carlos Eduardo e mais 6 »
Exibir acordes »
publicidade
fechar