Carruagens de fogo

Temas de Filmes

 Temas de Filmes
Tom: A#
		
(1ª parte)

E |----1----3--5--3--0-----------1---3--5-3----------1---3--5--3--0-------
B |--1------------------------1--------------------1----------------------
G |-----------------------------------------------------------------------
D |-----------------------------------------------------------------------
A |-----------------------------------------------------------------------
E |-----------------------------------------------------------------------



E |-0--1--0------------------------------------------------------------
B |----------3---1-----------------------------------------------------
G |--------------------------------------------------------------------
D |--------------------------------------------------------------------
A |--------------------------------------------------------------------
E |--------------------------------------------------------------------


(2ª parte)

E |--8-9-8-6-8-4-6---------8-9-8-6-8--8-9-8-6-8-4-6-----------------
B |----------------7--9------------------------------7--9---6-7-6---------
G |-------------------------------------------------------------8-6----
D |---------------------------------------------------------------------
A |---------------------------------------------------------------------
E |---------------------------------------------------------------------


(versão 2)

(1° parte)

E |--------------
B |---14---------
G |-6------------  (repita isso "n" vezes)
D |--------------
A |--------------
E |--------------


(2° parte)

E |------------------------------------------------------
B |---7-9-11-9--6----7-9-11-9----7-9-11-9--6--6-7-6------
G |-6--------------6-----------6--------------------6-6--


(3° parte)

E |-9-8-6---8---6-----9-8-6---8---9-8-6---8---6-----------------
B |-------9---9---7-9-------9-----------9---9---7-9--6-7-6------
G |--------------------------------------------------------6-6--

Comentários 0

Exibir acordes »
publicidade
fechar