Robin Hood

Temas de Filmes

 Temas de Filmes Compositor: Vinicius Castilho
Tom: D
		

E|------------5-7-5-------------------------|-----------------|
B|--0-5--7-8--------7--57-8--5-5-5-----7---0|-----------------|
G|-------------------7-------------7-7---7--|-----------------|
D|------------------------------------------|-----------------|
A|------------------------------------------|-----------------|
E|------------------------------------------|-----------------|



E|------------5-7-5-------------------------|-----------------|
B|--0-5--7-8--------7--57-8-7-5-7-5---5-7-5-|-----------------|
G|-------------------7--------------7-------|-----------------|
D|------------------------------------------|-----------------|
A|------------------------------------------|-----------------|
E|------------------------------------------|-----------------|


Arrumem ai se acharem algo errado
9.496 exibições

Comentários 0

Exibir acordes »
publicidade
fechar