Tema do filme 007

Temas de Filmes

 Temas de Filmes
Tom: G
		

E|-------------------------------------------------------|
D|-------------------------------------------------------|
G|-------------------------------------------------------|
D|-------------------------------------------------------|
A|-------------------------------------------------------|
E|--0--2-2-2---2-0-0-0--3--3-3-3--2-2-2------------------|   (2x)



E|-------------------------------------------------------|
B|-------------------------------------------------------|
G|-------------------------------------------------------|
D|-------------------------------------------------------|
A|-------------------------------------------------------|
E|--0--2-2-2---2-0-0-0--3--3-3-3--2-0--------------------|



E|-------------------------------------------------------|
B|-------------------------------------------------------|
G|-------------------------------------------------------|
D|-------------------------------------------------------|
A|--6-5-----0--------------------------------------------|
E|--------7---7------------------------------------------|
81.864 exibições

Comentários 0

Composição: Sabe quem é o compositor? Envie pra gente. Contribuição: tiago_san Correções: Jallm e mais 1 »
Consegui tocarAinda não conseguiram tocar essa música. Seja o primeiro!
    Não consegui tocar
    Exibir acordes »
    publicidade
    fechar