Vem Esta É a Hora

Vineyard

 Vineyard
Tom: D
		
(intro) D

D      D9     D4           D
Vem, esta é a hora da adooooração
A      A9      Em       G
Vem, dar a Ele teu coraaaação_
D      D9          D4         D
Vem, assim como estás para aaaadorar
A        A9        Em             G
Vem, assim como estás diante do Pai_
D
Vem
G                     D
Toda língua confessará o Senhor
G                 D/F#
Todo joelho se dobrará
G                     Bm
Mas aquele que a Ti escolher
    Em            A4 A
O tesouro maior terá       1ª(Volta ao começo)

(solo 2) E  E4 E B  F#m E/G#
         E  E4 E B  F#m E/G# E


E|--------------------s---------------------------------------------------------|
B|-9~--7-9-10-9--7--/10--10-8-9~~~~-----7~~----7-9-10-9--7--5-5-------5-5-------|
G|---------------------------------------------------------------6-7------------|
D|------------------------------------------------------------------------------|
A|------------------------------------------------------------------------------|
E|------------------------------------------------------------------------------|



E|------------------------------------------------------------------------------|
B|-9~-7-9-10-9--7-9-10--10-8-9~~-----19~~---19-21-22-21-19--17-17-------17-17---|
G|----------------------------------------------------------------18-19---------|
D|------------------------------------------------------------------------------|
A|------------------------------------------------------------------------------|
E|------------------------------------------------------------------------------|


A                    E
Toda língua confessará o Senhor
A                    E
Todo joelho se dobrará
A                       C#m
Mas aquele que a Ti escolher
F#m                B
O tesouro maior terá

E                      E4     E
Vem, esta é a hora da adooooração
B                 F#m  E/G# A
Vem, dar a Ele teu co- ra- ção_
E                           E4    E
Vem, assim como estás para aaaadorar
B                         F#m   A
Vem, assim como estás diante do Pai_

E    A/E  E    A/E   E
Vem, Vem, Vem, Vem, Vem

Comentários 9

Composição: Sabe quem é o compositor? Envie pra gente. Contribuição: Kbeça Correções: Bruno Henrique , sputinik e mais 9 »
Exibir acordes »
publicidade
fechar