Cifra Club

Hi-Five City

Aquabats

Cifra: Principal (violão e guitarra)
Selo Cifra Club: esta cifra foi revisada para atender aos critérios oficiais da nossa Equipe de Qualidade.
tom: Am
Intro:

E|---------|-------------------|
B|---------|-------------------|
G|---------|-------------------|
D|--------|-------------------|
A|---3-3---|-------0-2-3-3-----|
E|---------|----3--------------|

E|---------------|----------------------|
B|---------------|----------------------|
G|---------------|----------------------|
D|---------------|----------------------|
A|---------------|----------------------|
E|----0-3-4-5-5--|---0-3-4-5-5----------|

E|----------------|-------------------|
B|----------------|-------------------|
G|----------------|-------------------|
D|---------------|-------------------|
A|-----0-2-3-3----|-------0-2-3-3-----|
E|--3-------------|----3--------------|
Outros vídeos desta música
    0 exibições
      • ½ Tom
      • Am
      • Bbm
      • Bm
      • Cm
      • C#m
      • Dm
      • Ebm
      • Em
      • Fm
      • F#m
      • Gm
      • G#m
    • Adicionar à lista

    Afinação da cifra

    Afinador online

      0 comentários

      Ver todos os comentários

      Entre para o Cifra Club PRO

      Tenha acesso a benefícios exclusivos no App e no Site

      • Chega de anúncios

      • Badges exclusivas

      • Mais recursos no app do Afinador

      • Atendimento Prioritário

      • Aumente seu limite de lista

      • Ajude a produzir mais conteúdo

      Cifra Club Pro

      Aproveite o Cifra Club com benefícios exclusivos e sem anúncios
      Cifra Club Pro
      Aproveite o Cifra Club com benefícios exclusivos e sem anúncios
      Ops (: Contenido disponible sólo en portugués.
      OK