Enviar cifraEntrar

Desenho de Deus

Armandinho

Cifra: Versão 3
exibições 223.494
Tom: D
Introdução: A7+, D7+ 2x 
                                
A7+ 
Quando Deus te desenhou 
  D7+ 
Ele tava namorando  
A7+ 
Quando Deus te desenhou 
  D7+ 
Ele tava namorando 
           C#m7 
Na beira do mar 
             Bm7 
Na beira do mar do amor!  
           C#m7 
Na beira do mar 
            Bm7 
Na beira do mar do amor!  

A7+ 
Papai do céu na hora de fazer você 
  D7+ 
Ele deve ter caprichado pra valer 
A7+ 
Botou muita pureza no seu coração 
  D7+ 
E a sua humildade fez chamar minha atenção 
A7+ 
Tirou a sua voz do própolis e mel 
  D7+ 
E o teu sorriso lindo de algum lugar do céu 
A7+ 
O resto deve ser beleza exterior 
  D7+ 
Mas o que tem por dentro para mim tem mais valor 

        REFRÃO
 A7+ 
Quando Deus te desenhou 
  D7+ 
Ele tava namorando  
A7+ 
Quando Deus te desenhou 
  D7+ 
Ele tava namorando 
           C#m7 
Na beira do mar 
             Bm7 
Na beira do mar do amor!  
           C#m7 
Na beira do mar 
            Bm7 
Na beira do mar do amor! 

A7+ 
Papai do céu na hora de fazer você 
  D7+ 
Ele deve ter caprichado pra valer 
A7+ 
Botou muita pureza no seu coração 
  D7+ 
E a sua humildade fez chamar minha atenção 
A7+ 
Da estrela mais bonita o brilho desse olhar 
  D7+ 
Diamante verdadeiro sua palavra foi buscar  
A7+ 
O resto deve ser beleza exterior 
  D7+ 
Mas o que tem por dentro para mim tem mais valor 
 
(Repete Refrão antes do solo)         

Solo Guitarra (3:31 min)
  

     A7+
e|----------------------------------------------------
B|--10--9p7-------------------------------------------
G|------------9--6--9/11--9---------------------------
D|------------------------------9fullbend---7---------
A|----------------------------------------------------
E|----------------------------------------------------


    D7+
e|----------------------------------------------------
B|----------------------------------------------------
G|--9-------------------------------------------------
D|------9--7--9--7------------------------------------
A|-----------------------9--7-------------------------
E|--------------------------------9--7--5-------------


    A7+
e|----------------------------------------------------
B|------------------------------------10--10--10------
G|-----------------------------9--11------9---9-------
D|----------------7--9--9--11-------------------------
A|---------7--9---------------------------------------
E|--7--9----------------------------------------------


                            D7+
e|----------------------------------------------------
B|------10---9/11--9----------------------------------
G|------9--------------11--9--9/11\9-7----------------
D|--11------------------------------------------------
A|----------------------------------------------------
E|----------------------------------------------------
  • 1
  • 2
  • 3
  • 4
  • 5
  • 6
  • 7
  • 8
  • 9
  • 10
  • 11
  • 12
    Acordes para:
      Colaboração e revisão:
      • Cleonir Júnior
      • Alan Alves

      0 comentários

        mostrar mais comentários

        Conseguiu tocar?

        5tocaram1ainda não

        Grave um vídeo tocando Desenho de Deus e mande pra gente!

        00:00 / 00:00
        outros vídeos desta música
        repetirqualidadeautomática
        • automática
        Outro vídeos desta música
          00:00 / 00:00
          automática
          • automática
          fecharplay/pause subir/descer velocidade
            Acordes para:violão e guitarra
            acordes
            fechar
            OK