Cifra Club

One Armed Scissor

At The Drive-In

Cifra: Principal (violão e guitarra)
tom: C
[INTRO] (0:00)
Guitarra 1 (4/4)
------------------------               -3-   
-8--8--8--8--8-------0--               -3-   
-7--7--7--7--7-------7--   2X          -0-
-5--5--5--5--5-------X--               -2-
-7--7--7--7--7-------7--               ---
------------------------               ---

Guitarra 2 (4/4)
------------------------
------------------------
-7--7--7--7--7-------7--  2X
-x--x--x--x--x-------x--
-7--7--7--7--7-------7--
------------------------

Guitarra 1 (3/4)
-------------12------0--
-9--(9)--12------12-----
-x--(x)-----------------  4X 
-9--(9)-----------------
------------------------
------------------------

Guitarra 2 (3/4)
------------------------
-------------0----------
----------0------0------ PLAY 4X
-----10-------------10--
-12---------------------
------------------------

Guitarra 1 (3/4)
-----------0------0------0------0------0--
-9-----12-----12-----12-----12-----12-----
-x----------------------------------------
-9----------------------------------------
------------------------------------------
------------------------------------------

"entrails in the cargo..."
-----0------0------0------0------0------0-
-12-----12-----12-----12-----12-----12----
------------------------------------------ 
------------------------------------------ 
------------------------------------------
------------------------------------------

Guitarra 2 (3/4)
-------------------------------------------
-------------------------------------------
-----------------------------------(7)----- () = harmonias
----------------------------(7)------------
-12\---------------------------------------

-------------------------------------------
-(7)-----------------(7)-------------------
-------------------------------------------
-------------------------------------------
-------------------------------------------
-------------------------------------------


"Send transmission from the...."
Guitarra 1 (4/4)
---------------------------------------------------
-8--8--8--8--8-----0------3--3--3--3--3-----3------
-7--7--7--7--7-----7------0--0--0--0--0-----0------
-5--5--5--5--5-----X------4--4--4--4--4-----4------
-7--7--7--7--7-----7------5--5--5--5--5-----5------
---------------------------------------------------

"Cut away.....cut away....."
----------------------------------------------------------------
--------12--12--12--12--0--x--------------0---0---0---0---0---x-
---------x---x---x---x--0--x--------------0---0---0---0---0---0-
-10-----10--10--10--10--------------------x---x---x---x---x-----
-12-----12--12--12--12--------10--10------10--10--10--10--10----
------------------------------8---8-------8---8---8---8---8-----

Guitarra 2 (4/4)
--------------------------------------------------
--------------------------------------------------
-7--7--7--7--7-----7------7--7--7--7--7-----7-----
-x--x--x--x--x-----x------4--4--4--4--4-----4-----
-7--7--7--7--7-----7------5--5--5--5--5-----5-----
--------------------------------------------------

--------0---0---0---0---0----------------------------------------
--------x---x---x---x---x-----------------------------0---0---0--
-10-----10--10--10--10--10----------------------------0---0---0--
-7------7---7---7---7---7---0---------------------------------0--
-8------8---8---8---8---8---0-----10--10--10--10--10--10--10-----
----------------------------------8---8---8---8---8---8---8------

Guitarra 1 (4/4)
-------------------------------------------------  
----------0-----r--------r--------0--------------  
-------------0--e|-----0--e|-----------x--x--x--x--  
-------5--------s--x--x--s-----5-----x--x--x--x--  
----7-----------t--x--7--t--7--------x--x--7--7--  
-------------------------------------------------

-------------------------------------------------
----------0--r--------0--------------------------
-x-----0-----e|-----0--------------0--x-----------
-x--5--------s-----------x-----0-----x--5--4--0--
----7--------t--5--------x--2--------------------
-------------------------------------------------

Guitarra 2 (4/4)
-------------------------------------------------
----------0-----------0-----------0-----------0--
-------0-----------0-----------0-----------0-----
----10----------10----------10----------10-------
-12----------12----------12----------12----------
-------------------------------------------------

-------------------------------------------------
----------0-----------0-----------0-----------0--
-------0-----------0-----------0-----------0-----
----10----------9-----------7--------5--5--------
-12----------10----------9-----------7--7--------
-------------------------------------------------


"Banked on / memory / mummified..."
Guitarra 1 (4/4)
----12--0----------0---------12--0----------0---------  
-----------12--15---------0---------12--15---------0--  
----------------------14-----------------------14-----  
------------------------------------------------------  
------------------------------------------------------  
------------------------------------------------------  

----12--0----------0-------------0--------------------
-----------12--15---------0--12-------------12-13--12-
----------------------14------------12--11------------
------------------------------------------------------
------------------------------------------------------
------------------------------------------------------

Guitarra 2 (4/4)
----------------------------------------------------------------
----------------------------------------------------------------
----------------------------------------------------------------
-10--10--10--10--10--10--10--10--9---9---9---9---9---9---9---9--
-12--12--12--12--12--12--12--12--10--10--10--10--10--10--10--10-
----------------------------------------------------------------

------------------------------------------------- 
------------------------------------------------- 
------------------------------------------------- 
-7--7--7--7--7--7--7--7--5--5--5--5--5--5--5--5-- 
-9--9--9--9--9--9--9--9--7--7--7--7--7--7--7--7-- 
------------------------------------------------- 

Guitarra 1
"Self destruct / sequence / this system..."

Guiatrra 2
----------------------------------------------------------------
-0---0---0---0---0---0---0---0---0---0---0---0---0---0---0---0--
-0---0---0---0---0---0---0---0---0---0---0---0---0---0---0---0--
-10--10--10--10--10--10--10--10--9---9---9---9---9---9---9---9--
-12--12--12--12--12--12--12--12--10--10--10--10--10--10--10--10-
----------------------------------------------------------------

-------------------------------------------------
-0--0--0--0--0--0--0--0--0--0--0--0--0--0--0--0--
-0--0--0--0--0--0--0--0--0--0--0--0--0--0--0--0--
-7--7--7--7--7--7--7--7--5--5--5--5--5--5--5--5--
-9--9--9--9--9--9--9--9--7--7--7--7--7--7--7--7--
-------------------------------------------------

"Unknown / origin / is this the comfort..."
Guitarra 1 (4/4)
--------------------------------- 
-r--12--12--12--12*--12^------0-- 
-e|--0---0---0-------------14--0-- 
-s------------------------------- 
-t-------------------------------
---------------------------------

-12--------------------------------
-0---12--12--12*--12*--12*------0-- 
-0---0-----------------0----14--0--
-----------------------------------
-----------------------------------
-----------------------------------

---(12)---------0----0----------
----0---12--12--12*--12------0--
-0--0--------------------14--0--
--------------------------------
--------------------------------
--------------------------------

---------------------------------
-0--0----------12--13--12--------
-0--0--12--11--11------11--------
---------------------------------
---------------------------------
---------------------------------

Guitarra 2 (4/4)
------------------------------------------------------
-----------------13---------------------------12------
------------------------------------------------------
-10--10--10--10--10-----------9---9---9---9---9------- 
-12--12--12--12---------------10--10--10--10---------- 
------------------------------------------------------

-----------------10---(10)\---------------------------
-----------------10---(10)\---------------------------
----------------------------------------------12^--0--
-7---7---7---7----------------5---5---0---0/----------
-9---9---9---9----------------7---7---0---0-----------
00:00 / 00:00
Outros vídeos desta música
Repetir
Outros vídeos desta música
Composição de At the Drive-In
Colaboração e revisão:
  • wellington jordão
4.998 exibições
    • ½ Tom
    • A
    • Bb
    • B
    • C
    • Db
    • D
    • Eb
    • E
    • F
    • F#
    • G
    • Ab
  • Adicionar à lista

    0 comentários

    Ver todos os comentários

    Entre para oCifra Club PRO

    Tenha acesso a benefícios exclusivos no App e no Site

    • Chega de anúncios

    • Prioridade de compra em lançamentos

    • Mais recursos no app do Afinador

    • Atendimento Prioritário

    • Descontos nos produtos Cifra Club

    • Ajude a produzir mais conteúdo

    00:00 / 00:00

    Cifra Club Pro

    Aproveite o Cifra Club com benefícios exclusivos e sem anúncios
    Cifra Club Pro
    Aproveite o Cifra Club com benefícios exclusivos e sem anúncios
    OK