Cifra Club

Sta Bi Dao Da Si Na Mom Mjestu

Bijelo Dugme

Cifra: Principal (violão e guitarra)
Selo Cifra Club: esta cifra foi revisada para atender aos critérios oficiais da nossa Equipe de Qualidade.
tom: G
Tabbed by:Haris Opanovic
Email:*

Tuning:Intro solo

|----^--10-----------------------------------------------------------------^0-|
|----^-----12--------12-13---12h13p12-------------10------7-8-10-7h8p7-----^0-|
|----^---------12h14-------------------9h11----11-------7--------------7---^0-|
|------------------------------------------------0--------0--------------------^2-|
|------------------------------------------------------------------------------^2-|
|--------------------------------------------------------------------------^0-|

 
|------------^--10------------------------------------------------------------|
|------------^-----12--------12-13--12h13p12-------------10------7-8-10-7h8p7-|
|------------^---------12h14------------------9h11----11-------7--------------|
|-------------------------------------------------------0--------0----------------|
|-2S7-----------------------------------------------------------------------------|
|-----0-----------------------------------------------------------------------|

  
|----^0--------------------------------------------------------|
|----^0---------3-5-6----------3-5-6---------------------------|
|-7--^0-------2-------4------2--------------5------4-5-7--2----|
|----^2-----3--------------3---------6----7------5--------3----|
|----^2---2--------------2--------------0----------------------|
|----^0----------------------------------------3----------1----|

  
|----------------------5-5----8---7--------8-----8-----8--------|
|-------3-5-6S9------5-------------------5---5-----5-----5------|
|-----2------------5-------------------5-------5-----5-----5----|
|---3------------7----------7---6----7--------------------------|
|-2-------------------------------------------------------------|
|---------------------------------------------------------------|

  
|-------7-8S10---------10----------------4-----4-----4------------5-----|
|-----6--------------9-----------------3---3-----3-----3--------5---5---|
|---7-------------10-----------10----4-------4-----4-----4----5-------5-|
|-6-------------9------------9-----3------------------------7-----------|
|--------------------------8--------------------------------------------|
|-----------------------------------------------------------------------|

  
|-5-----5------------7-----7-----7------------8-----8-----8--------|
|---5-----5--------6---6-----6-----6--------5---5-----5-----5------|
|-----5-----5----7-------7-----7-----7----5-------5-----5-----5----|
|--------------6------------------------7--------------------------|
|------------------------------------------------------------------|
|------------------------------------------------------------------|

   
|----------11-------11-------11-----------------12-------10------------7--8-10S12|
|-------10----10-------10-------10-----------12----12-------10-------8-----------|
|----11----------11-------11-------11-----12----------12-------11----------------|
|-10-----------------------------------14--------------------------0-------------|
|--------------------------------------------------------------------------------|
|--------------------------------------------------------------------------------|

   
|-^4--5--^7--8--^11-------^12--10-------------------------------------------------|
|-^3-----^6-----^10-------^12-----12--------12-13--12h13p12-------------10------7-|
|-^4-----^7-----^11-------^12---------12h14------------------9-11----11-------7---|
|-^3-----^6-----^10------------------------------------------------0--------0-----|
|-----0------0----------------------------------------------------------------|
|---------------------------------------------------------------------------------|


|---------------0-----0------------------------------------|
|-8-10-7h8p7-------0-----0--1-0h1p0----0-----0-----1-------|
|------------7----------------------2-----0-----0-----2----|
|----------------------------------------------------------|
|---------------------------0----------------------0-------|
|---------------0-----0----------------0-----0-------------|


|------------0---0-----0----------------------------------|
|-------------------0-----0--1-0h1p0----0-----0-----1-----|
|-2-2p0h2----------------------------2-----0-----0-----2--|
|---------4-----------------------------------------------|
|-2--------------------------0----------------------0-----|
|------------0---0-----0----------------0-----0-----------|


                   PM-----------|    PM     PM-----------|
  
|------------------------------------------------------------|
|------------------------------------------------------------|
|-2-2p0h2----7---9----------------7----7--9------------------|
|---------4--7---9----------------7----7--9------------------|
|-2----------5---7----------------5----5--7------------------|
|------------------0--0-0--0-0--0----0------0--0-0--0-0--0---|

Prateci tekst svirajte ovo...(uz citavu pjesmu svirajte samo ovaj dio)

|----------------------------------------------------------------------------|
|----------------------------------------------------------------------------|
|----------------------------------------------------------------------------|
|--5--55--55--5--3-3--5/--------5--55-53-3---3-33--33--33--1/----------------|
|--7--77--77--7--5-5--7/--------7--77-75-5---5-55--55--55--3/----------------|
|--7--77--77--7--5-5--7/--------7--77-75-5---5-55--55--55--3/----------------|
Sra bi dao da si na mom mjestu                Da te mrze a da ti se dive

To je to...

Ako vam se svidja tablatura molim va da mi javite.

Uzivajte!
Outros vídeos desta música
    414 exibições
      • ½ Tom
      • A
      • Bb
      • B
      • C
      • Db
      • D
      • Eb
      • E
      • F
      • F#
      • G
      • Ab
    • Adicionar à lista

    Afinação da cifra

    Afinador online

      0 comentários

      Ver todos os comentários

      Entre para o Cifra Club PRO

      Tenha acesso a benefícios exclusivos no App e no Site

      • Chega de anúncios

      • Badges exclusivas

      • Mais recursos no app do Afinador

      • Atendimento Prioritário

      • Aumente seu limite de lista

      • Ajude a produzir mais conteúdo

      Cifra Club Pro

      Aproveite o Cifra Club com benefícios exclusivos e sem anúncios
      Cifra Club Pro
      Aproveite o Cifra Club com benefícios exclusivos e sem anúncios
      Ops (: Contenido disponible sólo en portugués.
      OK