Cifra Club

Candys Room

Bruce Springsteen

Cifra: Principal (violão e guitarra)
Selo Cifra Club: esta cifra foi revisada para atender aos critérios oficiais da nossa Equipe de Qualidade.
tom: C
(G  Dm7  C  Dm7  C  F  C  G)

--3--|--1-3-5-3-1--|--3--|--1-3-5-3-1--|--3--1-0--|--3--|-----|
--3--|--1-------1--|--1--|--1-------1--|--1--1-1--|--0--|-----|
--0--|--2-------2--|--0--|--2-------2--|--0--2-0--|--0--|-----|
--0--|--0-------0--|--2--|--0-------0--|--2--3-2--|--0--|-----|
--2--|-------------|--3--|-------------|--3--3-3--|--2--|-----|
--3--|-------------|-----|-------------|-----1----|--3--|-----|

G                         Dm7                           C
In Candy's room there are pictures of her heroes on the wall
          Dm7                    C         F    C G
To get to Candy's room you gotta walk the darkness of Candy's hall
                                       Dm7                        C
Strangers from the city call my baby's number and they bring her toys
             Dm7                 C          F    C      G
When I come knocking she smiles pretty she knows I wanna be Candy's boy

           C                            F
There's a sadness hidden in that pretty face
                  G                              F
A sadness all her own from which no man can keep Candy safe
    C          Dm7                   F
We kiss and my heart's pumpin' to my brain
                       C                 G
The blood rushes in my veins fire rushes towards the sky
              Dm                    F
We go driving driving deep into the night
      F                        C                G
I go driving deep into the light in Candy's eyes

                              C                    F        G
She says baby if you wanna be wild you got a lot to learn, close your eyes
                            C        F
Let them melt let them fire let them burn
              G                   Dm                  F
`Cause in the darkness there'll be hidden worlds that shine
F                      C                G
When I hold Candy close she makes these hidden worlds mine

 Bm                           A                            F#m
--------|-------------------|--------|-------------------|--------|-------------------|
-/12vvv-|-10-12-12/14\12-10-|-/12vvv-|-10-12-12/14\12-10-|-/12vvv-|-10-12-12/14\12-10-|
-s------|---------b--rb-----|-s------|---------b--rb-----|-s------|---------b--rb-----|
--------|-------------------|--------|-------------------|--------|-------------------|
--------|-------------------|--------|-------------------|--------|-------------------|
--------|-------------------|--------|-------------------|--------|-------------------|

G                     Bm                             A             F#m
--------|--/14--/14--|-/14vvv-/14vvv-|--14/15\14-12-|----15/17vvv-|-------|----------------7-|
-/12vvv-|--s----s----|-s------s------|----b--rb-----|-15---b------|-12vvv-|------------------|
-s------|------------|---------------|--------------|-------------|-------|----9vvv-7-9vvv---|
--------|------------|---------------|--------------|-------------|-------|-/7---------------|
--------|------------|---------------|--------------|-------------|-------|-s----------------|
--------|------------|---------------|--------------|-------------|-------|------------------|

              G
------------|----------|--17/19vvvv--|
-------p----|----------|-------------|
-9/11\9>7---|-9/11vvvv-|-------------|
--b-rb----9-|----------|-------------|
------------|----------|-------------|
------------|----------|-------------|

C                         G
She has fancy clothes and diamond rings
C                           G            Dm                   F
She has men who'll give her anything she wants but they don't see
     C                 G   Dm                F
That what she wants is me, oh and I want her so
     F             C        G
I'll never let her go no no no
                   Dm   F
She knows that I'd give all that I got to live
                 C                  G              Bm |
|
All that I want all that I live to make Candy mine
     G  C
Tonight
Outros vídeos desta música
    743 exibições
      • ½ Tom
      • A
      • Bb
      • B
      • C
      • Db
      • D
      • Eb
      • E
      • F
      • F#
      • G
      • Ab
    • Adicionar à lista

    Afinação da cifra

    Afinador online

      0 comentários

      Ver todos os comentários

      Entre para o Cifra Club PRO

      Tenha acesso a benefícios exclusivos no App e no Site

      • Chega de anúncios

      • Badges exclusivas

      • Mais recursos no app do Afinador

      • Atendimento Prioritário

      • Aumente seu limite de lista

      • Ajude a produzir mais conteúdo

      Cifra Club Pro

      Aproveite o Cifra Club com benefícios exclusivos e sem anúncios
      Cifra Club Pro
      Aproveite o Cifra Club com benefícios exclusivos e sem anúncios
      Ops (: Contenido disponible sólo en portugués.
      OK