Cifra Club

Y si no fuera

Chico Trujillo

Cifra: Principal (violão e guitarra)
Selo Cifra Club: esta cifra foi revisada para atender aos critérios oficiais da nossa Equipe de Qualidade.
tom: G
Intro: Am7 D7 G Em Am7 D7 G G7 x2 y con trompetas de fondo

E|----------8---8----------5-77-5-7------|
B|----7-8-----8---8-7--7-8----------7----|
G|--9-----9---------------------------9--|
D|---------------------------------------|
A|---------------------------------------|
E|---------------------------------------|

E|----------8---8----------55------------|
B|----7-8-----8---8-7--7-8---------------|
G|--9-----9------------------------------|
D|---------------------------------------|
A|---------------------------------------|
E|---------------------------------------|


        Am7                 D7
y si no fueras persiguiendo todo
        G    G7       Em7
me calmaria y te diria como
         Am7                    D7/9
hacer de esta normalidad una terraza donde estar
        G                    G7
y desde alli abrir los ojos al mundo

       Am7               D7
prepararia de manera especial
        G      G7             Em7
un recorrido por santiago por rumie
           Am7
en la cosa simple de entenderse
          D7/9          G7   E7
hay tanta cosa que no entiendo


        C             D7
y si lo vienes vienes a buscar
              G     G7               Em7
lo que no tiene prisa se demora en alcanzarte
         Am7         D7/9          G7  E7
y aqui estoy asi esperando como quisieras
        Am7             D7
y si lo vienes vienes a buscar
              G   G7                Em7
lo que no tiene prisa se demora en alcanzarte
         Am7         D7            G
y aqui estoy asi esperando como quisieras

Am7 D7 G Em Am7 D7 G G7 x2 y con trompetas de fondo

E|----------8---8----------5-77-5-7------|
B|----7-8-----8---8-7--7-8----------7----|
G|--9-----9---------------------------9--|
D|---------------------------------------|
A|---------------------------------------|
E|---------------------------------------|

E|----------8---8----------55------------|
B|----7-8-----8---8-7--7-8---------------|
G|--9-----9------------------------------|
D|---------------------------------------|
A|---------------------------------------|
E|---------------------------------------|
Outros vídeos desta música
    6.542 exibições
      • ½ Tom
      • A
      • Bb
      • B
      • C
      • Db
      • D
      • Eb
      • E
      • F
      • F#
      • G
      • Ab
    • Adicionar à lista

    Afinação da cifra

    Afinador online

      0 comentários

      Ver todos os comentários

      Conseguiu tocar?

      0Tocaram0Ainda não

      Grave um vídeo tocando Y si no fuera e nos envie!

      Toque também

      1. Imagem do artista Los TresHe Barrido El Sol Los Tres
      2. Imagem do artista Joe VasconcellosTú És Maior Joe Vasconcellos
      3. Imagem do artista Manuel GarciaLa danza de las libélulas Manuel Garcia
      4. Imagem do artista Chancho En PiedraDejando libre el amor Chancho En Piedra

      Entre para o Cifra Club PRO

      Tenha acesso a benefícios exclusivos no App e no Site

      • Chega de anúncios

      • Badges exclusivas

      • Mais recursos no app do Afinador

      • Atendimento Prioritário

      • Aumente seu limite de lista

      • Ajude a produzir mais conteúdo

      Cifra Club Pro

      Aproveite o Cifra Club com benefícios exclusivos e sem anúncios
      Cifra Club Pro
      Aproveite o Cifra Club com benefícios exclusivos e sem anúncios
      Ops (: Contenido disponible sólo en portugués.
      OK