Cifra Club

I Wanna Hump You!

Chixdiggit

Cifra: Principal (violão e guitarra)
Selo Cifra Club: esta cifra foi revisada para atender aos critérios oficiais da nossa Equipe de Qualidade.
tom: Db
Intro [4x]: F# G# 

c#
Well 
i wanna hump you
                                 F# F F#
that's the only thing i wanna say 
C#                                        G# G G#
i wanna hump you every night and every day 
C#                    
don't get mad at me 
                                      F# F F#
cuz thats the only thing i wanna dooo 
C#
cuz listen up baby, 
                 F#
this song's for you 
Let's try
 
[Refrão] F# G#
i wanna hump you [x4] 

You worked at orange julius 
but it's also at dairy queen 
you're the one with the dark hair 
and the eyes colored aquamarine 
you smiled at me when i ate my peanut buster parfait 
well a girl like you, 
is more than just a made
He's try! 

[Rfrão]
Here's why i wanna hump you [x3] 
i wanna hump you now [x4] 
i wanna hump you noooow 
Let's Rock!

Solo:

e|----------------------------------------------------------9----
B|---------------9-----------------------------9-9-11-9-9-11-----
G|-----------8s10-10-8-6-3---3-------6-8-6-8s10------------------
D|----------6--------------4---4--2------------------------------
A|-4-6-4-6s8------------------------4----------------------------
E|---------------------------------------------------------------

|------------------------------------------------9------9---------
|-9-9-9-9-7----11b12-11b12-9-11b12-11b12-9--9h11---9h11-----------
|-8-8-8-8---8--11b12-11b12---11b12-11b12--------------------------
|-----------------------------------------------------------------
|-----------------------------------------------------------------
|-----------------------------------------------------------------

|------12-9-----------------------|
|-9h11------11-9-------6-6--------|
|----------------11-9--6-6-4h6p4--|
|----------------------6-6--------|
|---------------------------------|
|---------------------------------|

[Refrão]
I wanna hump you[3x]
I wanna hump you now!

(Só o baixo com os mesmos acordes !)

Watching you (change those prices) 
(eat those pretzels) 
is the most erotic thing i've ever seen 
since i went to the french maid 
and saw the ping pong ball shooting queen 
i got an autographed picture 
and a pubic hair on a ball 
(that's gross) 
i wanna hump you the best 
chick in the mall 

[Refrão]
i wanna hump you [x3] 
i wanna hump you now
Outros vídeos desta música
    680 exibições
      • ½ Tom
      • A
      • Bb
      • B
      • C
      • Db
      • D
      • Eb
      • E
      • F
      • F#
      • G
      • Ab
    • Adicionar à lista

    Afinação da cifra

    Afinador online

      0 comentários

      Ver todos os comentários

      Conseguiu tocar?

      0Tocaram0Ainda não

      Grave um vídeo tocando I Wanna Hump You! e nos envie!

      Toque também

      1. Imagem do artista The LillingtonsBrain Damage The Lillingtons
      2. Imagem do artista The ApersEyes Wide Open The Apers
      3. Imagem do artista The CopyrightsThe Ceilings The Limit The Copyrights
      4. Imagem do artista The QueersPunk Rock Girls The Queers

      Entre para o Cifra Club PRO

      Tenha acesso a benefícios exclusivos no App e no Site

      • Chega de anúncios

      • Badges exclusivas

      • Mais recursos no app do Afinador

      • Atendimento Prioritário

      • Aumente seu limite de lista

      • Ajude a produzir mais conteúdo

      Cifra Club Pro

      Aproveite o Cifra Club com benefícios exclusivos e sem anúncios
      Cifra Club Pro
      Aproveite o Cifra Club com benefícios exclusivos e sem anúncios
      Ops (: Contenido disponible sólo en portugués.
      OK