Cifra Club

Euro Trash Girl

Cracker

Cifra: Principal (violão e guitarra)
Selo Cifra Club: esta cifra foi revisada para atender aos critérios oficiais da nossa Equipe de Qualidade.
tom: C
E|---------------------------------------------------------------------------|
B|---------------------------------------------------------------------------|
G|--------------5-4------------5-5h7-5---------------------------------------|
D|----5h7-5---------5------5h7---------5br-5---------------------------------|
A|--------------------------------------------7\5-3--------------------------|
E|---------------------------------------------------------------------------|

E|---------------------------------------------------------------------------|
B|---------------------------------------------------------------------------|
G|--------------------------------5------------------------------------------|
D|---------------------3--3--5/7-----5br--5------------5--3--2b3r2--0--------|
A|---------------3--5-------------------------3--5/7-------------------------|
E|----1--1--3/5--------------------------------------------------------------|

E|---------------------------------------------------------------------------|
B|---------------------------------------------------------------------------|
G|--------------------------5------------------------------------------------|
D|----0--5/7--5-------------5h7--5-------------------------------------------|
A|----------------------------------7\5--3--5br---3---3----------------------|
E|---------------------------------------------------------------------------|

E|---------------------------------------------------------------------------|
B|---------------------------------------------------------------------------|
G|---------------------5-----------------------------------------------------|
D|------------------5--------------------------------------------------------|
A|----------3--5/7-----------------------------------------------------------|
E|----3--5-------------------------------------------------------------------|


************************************

| h   Hammer-on
| p   Pull-off
| /   Slide up
| \   Slide down
| b   Bend
| br  Bend and release quickly
Outros vídeos desta música
    2 exibições
      • ½ Tom
      • A
      • Bb
      • B
      • C
      • Db
      • D
      • Eb
      • E
      • F
      • F#
      • G
      • Ab
    • Adicionar à lista

    Afinação da cifra

    Afinador online

      0 comentários

      Ver todos os comentários

      Conseguiu tocar?

      0Tocaram0Ainda não

      Grave um vídeo tocando Euro Trash Girl e nos envie!

      Toque também

      1. Imagem do artista Urge OverkillGirl You'll Be A Woman Soon Urge Overkill
      2. Imagem do artista Concrete BlondeJoey Concrete Blonde
      3. Imagem do artista Seven Mary ThreeWaters Edge Seven Mary Three
      4. Imagem do artista Camper Van BeethovenHey Brother Camper Van Beethoven

      Entre para o Cifra Club PRO

      Tenha acesso a benefícios exclusivos no App e no Site

      • Chega de anúncios

      • Badges exclusivas

      • Mais recursos no app do Afinador

      • Atendimento Prioritário

      • Aumente seu limite de lista

      • Ajude a produzir mais conteúdo

      Cifra Club Pro

      Aproveite o Cifra Club com benefícios exclusivos e sem anúncios
      Cifra Club Pro
      Aproveite o Cifra Club com benefícios exclusivos e sem anúncios
      Ops (: Contenido disponible sólo en portugués.
      OK