Cifra Club

Walang Yamang Mas Hihigit Sayo

Cueshé

Cifra: Principal (violão e guitarra)
Selo Cifra Club: esta cifra foi revisada para atender aos critérios oficiais da nossa Equipe de Qualidade.
tom: Bb
Soundtrack: Asian Treasure
Tabbed by: Rodel F. Fariñas a.k.a. mr4ever_more
Email at friendster: *
Contact no: 09196998754
Date: January 28, 2006

Intro: F-C-Dm-Bb(hold)

e-------------------------------------------------------------------------...I
b-------------------------------------------------------------------------...I
g----------------7(/8)-----------------7(/8)------------------------------...I
d----10--8-8--66----------10--8-8--6-6----------10--8-8--6-6--8(hold)-----...I
a--8--------------------8---------------------8---------------------------...I
E-------------------------------------------------------------------------...I

Verse:
e------------------------------------------------------------------------...I
b------------------------------------------------------------------------...I
g------------------------------7(/8)-------------------------------------...I...Play nyo po ito  throughout
d---10--8-8--6-6---10--8-8-6-6--------I   the verse...ulit ulit *..
a--8-------------8-------------------------------------------------------...I
E------------------------------------------------------------------------...I

Tip: Mas maganda po pag meju strumming ang banat nyo sa mga tab na ito..ung
sabihin nyan, optional..nilagay ko ung slide para gumanda ang tunog at para makuha ung desire na
Maganda din po pag base ung isa pang pambanat nyo throughout the song...ganito po:

d-10-10--------------------------------------------|
a--8-8 (hold)-10-10--------12-12--------8-8--------|
E--------------8-8 (hold)--10-10(hold)--6-6(hold)--|
Ganyan lang po..bawat transition ng kords naghohold.. yan po ang napapakinggan ko..bale
po ang guitar 2...maganda pag jamming...


F        C
Ano ba hanap mo
Dm              Bb           F       C
   Bb
Pwede ba ang katulad ko ang ibigin mo....  Ohhhh...
F            C           Dm                        F      C
Di mo na kailangan pang pumunta sa dulo ng walang hanggan
        Dm     Bb
Upang sumaya....

Refrain:
Dm          Bb           C
Ipikit mo lang ang iyong mata
              Dm
Puso mo ang makakakita
Bb                  C...
ng yamang hindi inaasahan...

Chorus:
F       C            Dm
Ika'y ginto sa puso ko
       Bb             F
Sana ito ay malaman mo
            C         Dm
Wala nang yaman sa mundo
           Bb           F
Ang mas hihigit pa sa'yo
             C
Wala nang hahanapin pa
Dm       Bb             F
Sa'yo ako'y kontento na
        C
Sana malaman mo ito
Dm       Bb
Wala yamang mas hihigit sa'yo...

e-----------------------------------------------------------------------|
b-----------------------------------------------------------------------|
g----------------7(/8)-----------------7(/8)-----------------7(/8)------|
d----10--8-8--66----------10--8-8--6-6----------10--8-8--6-6-------I----|
a--8--------------------8---------------------8-------------------------|
E-----------------------------------------------------------------------|

e---------------------------...I
b---------------------------...I
g---------------------------...I
d----10--8-8--6-6-8(hold)---...I
a--8------------------------...I
E---------------------------...I

F             C
Iwan mo na ang nagdaan
 Dm                    Bb         F     C
Matutong wag muling masaktan ang damdamin
               Dm    Bb
Ako'y iyong pansinin
F               C
Di naman ako katulad nila
Dm                    Bb
Walang porma walang pera
F
Pero mahal kita
C
Ika'y mahalaga at
Dm         Bb
Iingatan pa

Refrain:
Dm          Bb           C
Ipikit mo lang ang iyong mata
              Dm
Puso mo ang makakakita
Bb                  C...
ng yamang hindi inaasahan...

Chorus:
F       C            Dm
Ika'y ginto sa puso ko
       Bb             F
Sana ito ay malaman mo
            C         Dm
Wala nang yaman sa mundo
           Bb           F
Ang mas hihigit pa sa'yo
             C
Wala nang hahanapin pa
Dm       Bb             F
Sa'yo ako'y kontento na
        C
Sana malaman mo ito
Dm       Bb                 Intro
Wala yamang mas hihigit sa'yo...

I think po may mali pa sa mga tab ko..So, sa mga master po...open po ako sa mga
and comment. Sa mga beginners naman po sana nakatulong itong tab ko and kords ko para matugtog
ito narinig ng kumpleto..sa unang hirit...and pag pinapatalastas...
Hi to  my beautiful sis, Christy Arnaez of Gordon Heights, and my loving wife Anne
L. Geneza, and sa lahat ng mga taga olongapo.!!!!Rock your world....tnx po....
Outros vídeos desta música
    401 exibições
      • ½ Tom
      • A
      • Bb
      • B
      • C
      • Db
      • D
      • Eb
      • E
      • F
      • F#
      • G
      • Ab
    • Adicionar à lista

    Afinação da cifra

    Afinador online

      0 comentários

      Ver todos os comentários

      Entre para o Cifra Club PRO

      Tenha acesso a benefícios exclusivos no App e no Site

      • Chega de anúncios

      • Badges exclusivas

      • Mais recursos no app do Afinador

      • Atendimento Prioritário

      • Aumente seu limite de lista

      • Ajude a produzir mais conteúdo

      Cifra Club Pro

      Aproveite o Cifra Club com benefícios exclusivos e sem anúncios
      Cifra Club Pro
      Aproveite o Cifra Club com benefícios exclusivos e sem anúncios
      Ops (: Contenido disponible sólo en portugués.
      OK