Cifra Club

Burn my hand

Diesel

Cifra: Principal (violão e guitarra)
Selo Cifra Club: esta cifra foi revisada para atender aos critérios oficiais da nossa Equipe de Qualidade.
tom: Db
Intro:

F# Bb

B|---14-14-14-14-14-14-14-13-13-13-13-13-13-13-16-16-16-16-16-16-16-16-14-14-14-14-14-14-14-|


Riff 1 (durante verso; ouça a música para melhor entendimento.)
e|-----------------------------------------------|
B|-4---------------------------------------------|
G|---6-5-----------------------------------------|
D|-------8-6~------------------------------------|
A|-----------------------------------------------|
E|-----------------------------------------------|

(Bbm)
IT'S YOU I'D FOLLOW
TO EASE MY SORROW
BUT YOU TOOK YOUR LIFE
AWAY ALONG WITH MINE

Bb  
I FEEL IT IN MY SPINE
G# 
THE URGE TO KNOW WHY
F# 
DID YOU BLEED THROUGH WOUNDS
A           G#          
THAT COULD NEVER MEND?

Durante a próxima parte (1:02, 1:11) - Guitarra Limpa,
 com um pouco de reverb:

Riff 2
e|--8--8-8-x-9-9-9-9-8----------------------------------|
B|--9--9-9-x-9-9-9-9-9----------------------------------|
G|------------------------------------------------------|
D|------------------------------------------------------|
A|------------------------------------------------------|
E|------------------------------------------------------|

(C# F#)
BURN MY HAND
TEAR ME DOWN
SO ALL MY FEARS
CAN HIT THE GROUND

(Bbm)
THE TRACE I TAKE AFTER
COULD NO LONGER MATTER
AS YOU TEACH ME NOT TO SEE,
NOT TO CRY, NOT TO SAY GOODBYE

Bb
I KEEP YOU INSIDE
G#
YOU KNOW, THERE'S NO SPITE
F#             A         G#
I SIMPLY WISH YOU COULD MAKE ME

(C#  F#)
UNDERSTAND SOMEHOW
DOES IT MAKE ANY SENSE NOW?
BURN MY HAND
TEAR ME DOWN
SO ALL I FEAR
CAN HIT THE GROUND

F#                 C#           G#
WHEN MY HAND He REACHES FOR THE GUN AGAIN

Esse RIff entra jundo com o F# aí de cima...

RIff 3:
   F#                 
e|-------------------------------------------------------------|
B|-------4--------4--------4--------4--------------------------|
G|---------6--------6---6----6--------6------------------------|
D|--4----------4-----------------6-----------------------------|
A|-------------------------------------------------------------|
E|-------------------------------------------------------------|

[(F# Bb) 3x] G#


(Com essa base a segunda guitarra fica fazendo um solinho
 mais ou menos parecido com o da introdução)

Bb
I FEEL IT IN MY SPINE
G#
THE NEED TO STAY AWHILE
F#
JUST TURN MY BACK
G#
DRAW ALL THESE THINGS OUT OF MY HEAD
Bb                           F# 
AND CARE FOR THE ONES WHO STAYED.......

CARE FOR THE ONES WHO STAYED.......

(C# F#) - Desta vez com a a guitarra distorcida
BURN MY HAND
TEAR ME DOWN
SO ALL I FEAR
CAN HIT THE GROUND


e|--------------------------------------------|
B|--------------------------------------------|
G|--------------------------------------------|
D|-3/4-4-4-3/4-4-4~--(3 vezes)---3~--4~-------|
A|-3/4-4-4-3/4-4-4~--------------3~--4~-------|
E|-1/2-2-2-1/2-2-2~--------------1~--2~-------|

Riffs do fim da música (4:31):

Riff 5
e|---8-9-8------------8-11-9--------------------------|
B|----------11--9-------------------------------------|
G|----------------------------------------------------|
D|----------------------------------------------------|
A|----------------------------------------------------|
E|----------------------------------------------------|

Riff 6

|-11--13--11--9-----8-11-9--------------------|
|---------------9-----------------------------|
|---------------------------------------------|
|---------------------------------------------|
|---------------------------------------------|
|---------------------------------------------|

Riff 7

|--13-14-13-----8-11-9------------------------|
|-----------14--------------------------------|
|---------------------------------------------|
|---------------------------------------------|
|---------------------------------------------|
|---------------------------------------------|

Sequência dos Riffs acima:

Riff 5 (2x)
Riff 6
Riff 5
Riff 7 (2x)

termina com:

Does it make any sense now?
|--11-9~~~-----|
Outros vídeos desta música
    5.022 exibições
      • ½ Tom
      • A
      • Bb
      • B
      • C
      • Db
      • D
      • Eb
      • E
      • F
      • F#
      • G
      • Ab
    • Adicionar à lista

    Afinação da cifra

    Afinador online

      0 comentários

      Ver todos os comentários

      Entre para o Cifra Club PRO

      Tenha acesso a benefícios exclusivos no App e no Site

      • Chega de anúncios

      • Badges exclusivas

      • Mais recursos no app do Afinador

      • Atendimento Prioritário

      • Aumente seu limite de lista

      • Ajude a produzir mais conteúdo

      Cifra Club Pro

      Aproveite o Cifra Club com benefícios exclusivos e sem anúncios
      Cifra Club Pro
      Aproveite o Cifra Club com benefícios exclusivos e sem anúncios
      Ops (: Contenido disponible sólo en portugués.
      OK