Cifra Club

Aprenda

Zero

Dr. Sin

Cifra: Versão 2 (violão e guitarra)
Tom: Ab (forma dos acordes no tom de A) Afinação: Eb Ab Db Gb Bb Eb
Intro / Refrão:

E|-------------------------------5/7\5--------------------------------|
B|----------2---3---5------------3/5\3---------10---------------------|
G|------4--------------------------------9/11------11\9p7--7h9--------|
D|--4------------------5---5--5----------0-----------------7----------|
A|---------------------------------------------------------0----------|
E|--------------------------------------------------------------------|

E|--------------------------------------------------------------------|
B|-----------10--10--12----------------------------10-----------------|
G|--7--9/11---------------11p9-----------9---9/11------11\9p7--7h9----|
D|-----0-------------------------12--12------0-----------------7------|
A|------------------------10-----------------------------------0------|
E|--------------------------------------------------------------------|

Verso:
E|--------------------------------------------------------------------3--3--3--3--3--|
B|--------1--0---------------1h3-------------------------1--0---------3--3--3--3--3--|
G|----0h2------0-2-------0h2-----4-0-2------0--------0h2------0-2-----5--5--5--4--5--|
D|-0----------------0--0----------------0-----4-2-0----------------0--5--5--5--5--5--|
A|-----------------------------------------------------------------------------------|
E|-----------------------------------------------------------------------------------|

E|-------------------------------------------------------------------------|
B|--------1--0-----------------1h3---------------------------1--0----------|
G|----0h2------0-2---------0h2-----4-0-2------0----------0h2------0-2------|
D|-0----------------0----0----------------0-----4-2-0------------------0---|
A|-------------------------------------------------------------------------|
E|-------------------------------------------------------------------------|

E|--3--3--3---3--3--3---2--2--2---2--2--2---2---|
B|--3--3--3---3--3--3---3--3--3---3--3--3---3---|
G|--5--5--5---4--4--4---2--2--2---1--1--1---2---|
D|--5--5--5---5--5--5---0--0--0---0--0--0---0---|
A|----------------------------------------------|
E|----------------------------------------------|

E|-3----3----3-----3---x--3---------------------------------------------------|
B|-3----3----3-----3---x--3---------------------------------------------------|
G|-0----0----0-----0---x--0---------------------------------------------------|
D|-x----x----0-----0---x--0--x--x---3/5---5--x--x--3/5----5--x--x--3/5--x--x--|
A|-3----3----x-----x---x--x--x--x---3/5---5--x--x--3/5----5--x--x--3/5--x--x--|
E|-----------3-----3---x--3--x--x---1/3---3--x--x--1/3----3--x--x--1/3--x--x--|

E|-3----3----3-----3----------------------------------------------------------|
B|-3----3----3-----3----------------------------------------------------------|
G|-0----0----0-----0----------------------------------------------------------|
D|-x----x----0-----0---------x--x---3/5---5--x--x--3/5-------x--x--3/5--x--x--|
A|-3----3----x-----x---------x--x---3/5---5--x--x--3/5-------x--x--3/5--x--x--|
E|-----------3-----3---------x--x---1/3---3--x--x--1/3-------x--x--1/3--x--x--|
                    H.N.- - - - - |
E|----------------------------------|
B|-3---------------------7----------|
G|-2------------------5-----7-------|
D|-0---------------------------7----|
A|----------------------------------|
E|----------------------------------|

(segundo verso)

  P.M. - - - - - - - - - - - - - - - - - - - - - - - - - - - - - - - - - - - - - - - - - - - - - |
E|-----------------------------------------------------------------------------------------------|
B|-----------------------------------------------------------------------------------------------|
G|-----0--2--5--0--2--4--0--2--5--0--2--4--0--4--5--0--5--7--0--7--9--0--9--11--0-11-12-11-9-----|
D|-0-0---------------------------------------------------------------------------------------12--|
A|-----------------------------------------------------------------------------------------------|
E|-----------------------------------------------------------------------------------------------|
                                                   H.A.                                 H.A.
E|-----------------------------------------------------------------------------------------------|
B|-----------------------------------------------------------------------------------------------|
G|-----------------------------------------------------------------------------------------------|
D|-0--10--12--0--9--10--0--7--9--0--6--7--0--4--0--6b7r6--0--4--0--0--6--0--0--4--0--0--4b5r4----|
A|-----------------------------------------------------------------------------------------------|
E|-----------------------------------------------------------------------------------------------|

Solo:
E|-------------------------------------------------------------------------------------19---|
B|----------------12/--17b20---19r17---17~--15-----------------------17----19----20---------|
G|-----9--11--12--------------------------------14/16~-------14/16------16----16----16------|
D|-/9---------------------------------------------------------------------------------------|
A|------------------------------------------------------------------------------------------|
E|------------------------------------------------------------------------------------------|

E|-19-20-19-15----------------------------------------------------------------------------|
B|-------------17-------------------------------------------------------------------------|
G|----------------17-16-------------------------16-17-19-17h19p17p16----------------------|
D|----------------------17-------------16-17-19----------------------19-17-16-------------|
A|-------------------------19-15-17-19----------------------------------------19~---------|
E|----------------------------------------------------------------------------------------|

E|-------------15-19p15----------15-19-----17-14----------14-17-----15-12----------12-14------15p14p12h14----|
B|----------17----------17----17-----------------15----15-----------------13----13---------------------------|
G|-------16----------------16-----------------------14-----------------------12------------------------------|
D|----17-----------------------------------------------------------------------------------------------------|
A|-19--------------------------------------------------------------------------------------------------------|
E|-----------------------------------------------------------------------------------------------------------|

E|-15\14p10---------------------------------10-14--15------------|
B|----------12---------------------------12----------------------|
G|-------------12---------------------12---------------14b15r14--|
D|----------------12---------------12----------------------------|
A|-------------------14p10\9/10-14-------------------------------|
E|---------------------------------------------------------------|

E|-------------------------------------------------------------------|
B|-------15---12p10----------------------------------------3b5-------|
G|-12h14------------12\--------------------------2p0-----------------|
D|----------------------7----5------------------------2-0------------|
A|-----------------------------7p5\2p0-------0-----------------------|
E|-------------------------------------3p0---------------------------|

Solo Final:

E|--------------------12-----------14----------15--------------------------------------19----|
B|----------------12--15b17--------17b19-------18b20-----17~---------17----19----20----------|
G|-----9--11--12-------------------------------------------------/16----16----16----16-------|
D|-/9----------------------------------------------------------------------------------------|
A|-------------------------------------------------------------------------------------------|
E|-------------------------------------------------------------------------------------------|

E|-19-20-19-15-------------------------------15-20p15h19p15h17p15\14h15p14------------------------|
B|-------------17-------------------------17-------------------------------17b19--20r17-----------|
G|----------------17-16----------------16------------------------------------------------16~------|
D|----------------------17----------17------------------------------------------------------------|
A|-------------------------19-15-19---------------------------------------------------------------|
E|------------------------------------------------------------------------------------------------|

E|-15-14-15-12-15----15----15----15----15----15-----------------------------|
B|----------------15----13----12--------------------------------------------|
G|----------------------------------14----12----11-12-14-11-12-11-----------|
D|----------------------------------------------------------------12/14~----|
A|--------------------------------------------------------------------------|
E|--------------------------------------------------------------------------|

E|-15-14-15-12-15----15--------------------------12------------|
B|----------------15----13-12-----------------------12-15b17---|
G|--------------------------------14-12-14b16------------------|
D|-------------------------------------------------------------|
A|-------------------------------------------------------------|
E|-------------------------------------------------------------|

E|--12-------------12-------------12-------------12-------------12-------------12---------|
B|-----15p12-15b17----15p12-15b17----15p12-15b17----15p12-15b17----15p12-15b17---12h15p12-|
G|----------------------------------------------------------------------------------------|
D|----------------------------------------------------------------------------------------|
A|----------------------------------------------------------------------------------------|
E|----------------------------------------------------------------------------------------|

E|-------------------------------------------------------------------------------------------------|
B|-------12-15-------12-15-------12-15-------12-15-------12-15-------12-15-------12-15-------12-15-|
G|-14b16-------14b16-------14b16-------14b16-------14b16-------14b16-------14b16-------14b16-------|
D|-------------------------------------------------------------------------------------------------|
A|-------------------------------------------------------------------------------------------------|
E|-------------------------------------------------------------------------------------------------|

E|------------------------------------------------------------------------------------------------|
B|-------12-15p12-------12-15p12-------12-15p12-------12-15p12-------12-15p12-------12-15p12------|
G|-14b16----------14b16----------14b16----------14b16----------14b16----------14b16----------14---|
D|------------------------------------------------------------------------------------------------|
A|------------------------------------------------------------------------------------------------|
E|------------------------------------------------------------------------------------------------|
                     t     t                 t
E|----------12h15h19-22p19-22p19p15p12h15h19-22p19p15p12----------|
B|-------12----------------------------------------------15b17----|
G|----12----------------------------------------------------------|
D|-14-------------------------------------------------------------|
A|----------------------------------------------------------------|
E|----------------------------------------------------------------|

E|-12----12-----------------------------------------------------------------------------------|
B|----12----15p12-------------15p12----12-----------------------------------------------------|
G|----------------14b16r14-12-------14----15p14p12-------12h14p12-----------------------------|
D|-------------------------------------------------13h14----------14-12h14p12-----------------|
A|----------------------------------------------------------------------------14-13-12\10-----|
E|----------------------------------------------------------------------------------------12~-|

E|--------------------------------------15-------14-------17-------15-------19-------17-|
B|---------------------15-------12------------------------------------------------------|
G|---14-------12-------------------9/12----12\11----11/14----14\12----12/16----16\14----|
D|---------------10/12----12\9----------------------------------------------------------|
A|-12---12\10---------------------------------------------------------------------------|
E|--------------------------------------------------------------------------------------|

E|-------22-------19-------17-------15------------|
B|----------------------------------------15b17---|
G|-14/19----19\16----16\14----14\12----12---------|
D|------------------------------------------------|
A|------------------------------------------------|
E|------------------------------------------------|
                                                H.A.
E|-12---------------------------------------------------|
B|----15-12---------------------------------------------|
G|----------14b16r14-12---------------------------------|
D|----------------------14-12-14-12-14-12-12h14-14~-----|
A|------------------------------------------------------|
E|------------------------------------------------------|

E|---------------------------------------12-------------------------------------------------------------------|
B|--x-x-14--12h14p12-------------x-x-x-x----15b17--------14--12h14p12-----------------------------------------|
G|--x-x-14--12h14p12-------12----x-x-x-x-----------------14--12h14p12-----------------------------------------|
D|--x-x-14--12h14p12-14-------14-x-x-x-x-----------------14--12h14p12-12----12h14-----------------------------|
A|----------------------14-----------------------------------------------14-------12h13p12\10----10/12---10---|
E|--------------------------------------------------------------------------------------------12--------------|
                                  H.A.           H.A. P.M.- - - |  H.A.
E|--------------------------------------------------------------------------------------------------|
B|--------------------------------------------------------------------------------------------------|
G|-----------------------------------------------------------------------------------------7--9--7--|
D|---------------------x--x-----------x--x-------------------------5b6--------------5h7/9-----------|
A|--7-----5/7--5-------x--x--5h7--7---x--x--5h7--7----7--5--7--5---------7-----5h7------------------|
E|-----7--------------------------------------------------------------------7-----------------------|

E|--------10--------10--------10--------10-------7-10p7-------7-10p7-|
B|-10b12-----10b12-----10b12-----10b12-----10b12--------10b12--------|
G|-------------------------------------------------------------------|
D|-------------------------------------------------------------------|
A|-------------------------------------------------------------------|
E|-------------------------------------------------------------------|
Colaboração e revisão:
  • Diego Torres
197 exibições
    • ½ Tom
    • A
    • Bb
    • B
    • C
    • Db
    • D
    • Eb
    • E
    • F
    • F#
    • G
    • Ab
  • Adicionar à lista

    0 comentários

    Mostrar mais comentários

    Conseguiu tocar?

    0 Tocaram 0 Ainda não

    Grave um vídeo tocando Zero e mande pra gente!

    00:00 / 00:00
    outros vídeos desta música
    repetir qualidade Automático
    Outros vídeos desta música
    00:00 / 00:00
    Automático
    Capítulos
    • Início
    • Afinação
    • Tocando a Música
    • Tocando Introdução
    • Ensinando Introdução
    • Acordes Primeira Parte
    • Tocando Primeira Parte
    • Ensinando Primeira Parte
    • Acordes Segunda Parte
    • Tocando Segunda Parte
    • Ensinando Segunda Parte
    • Tocando Refrão
    • Ensinando Ponte
    • Tocando Solo
    • Ensinando Solo
    • Tocando Variação Refrão
    • Ensinando Variação Refrão
    • Encerramento
    OK