Cifra Club

Cosa della vita / Can't stop thinking of you

Eros Ramazzotti

Cifra: Principal (violão e guitarra)
Selo Cifra Club: esta cifra foi revisada para atender aos critérios oficiais da nossa Equipe de Qualidade.
tom: E
(Eros Ramazzotti e Tina Turner)

[Intro]
E|----------------------0-0---------0-0---------------------|
B|----------------------0-0---------0-0---------------------|
G|----------------------------------------------------------|
D|----------------------------------------------------------|
A|--2-2-2--2-2-2--2-2-2------2-2-2--------------------------|
E|--0-0-0--0-0-0--0-0-0------0-0-0-------0-1-2--0-1-2--0-5-2| F#m D A E

F#m       D          A    E
   Sono umane situazioni
F#m       D          A    E
   Quei momenti fra di noi
F#m       D          A    E
   I distacchi e i ritorni
F#m       D          A    E
   Da capirci niente poi
Bm7      A    E
Giá... come vedi
Bm7       A         E
  Sto pensando a te... si... da un po'

E|---------------------------------------------------------|
B|---------------------------------------------------------|
G|-----14-16b18-16-14-16-16-14----14-14-------------14-----|
D|--16-------------------------16-------16----14h16----16--|
A|-----------------------------------------16--------------|
E|---------------------------------------------------------|

E|--------------------------------------------------------------17--|
B|--------------------------------------17-14-17b19-17-17h14-14-----|
G|-----14-16b18-16-14-16-16-14----16/18-----------------------------|
D|--16-------------------------16-----------------------------------|
A|------------------------------------------------------------------|
E|------------------------------------------------------------------|

[Solo]
F#m       D          A    E     x2

F#m       D          A    E
   They're just human contradictions
F#m       D          A    E
   Feeling happy feeling sad
F#m       D          A    E
   These emotional transitions
F#m       D          A    E
   All the memories we've had

Bm7        A          E
Yes, you know it's true
Bm7                 A              E
  I just can't stop thinking of you


      A9             C#m
No I just can't pretend
                            Bm9
All the time that we spent could die
       A9
Wanna feel it again
                       C#7/4
All the love we felt then
      A9             C#m               Bm9
Confinanti di cuore solo che ognuno sta
            F#m         A         E
Dietro gli steccati degli orgogli suoi
                F#m  A  D  E
Sto pensando a te
                F#m  A  D  E
Sto pensando a noi

Agora, ELE MUDA DE TONALIDADE ( DOIS SEMITONS A MAIS )

G#m       E       B       F#
    Sono cose della vita
G#m       E       B       F#
    Vanno prese un po'cosi

    G#m       E       B       F#
   Some for worse and some for better
    G#m       E       B       F#
   But through it all we've come so far

C#m7     B     F#
Giá... come vedi
C#m7       B         F#
  Io sto ancora in piedi

Perché
   G#m            E              B
   Sono umani tutti i sogni miei
   B                           F#
   Con le mani io li prenderei, si perché
   G#m              E                B
   What is life without a dream to hold?
    B                           F#
   Take my hand and never let me go
Agora, MUDA DE TONALIDADE MAIS UMA VEZ ( UM SEMI
  Am     F        C      G
   It's part of life together
  Am     F        C      G
   But what future does it hold?

  Am     F        C      G
   Sono cose della vita
  Am     F        C      G
   Ma la vita poi dov'é

Dm7     C           G
Yes, you know it's true
Dm7                C         G
  I just can't stop thinking of you

 C9             Em                Dm7
Questa notte che passa piano accanto a me
          Am7
Cerco di affrontarla, afferrarla

         C9               Em
If our hearts miss a beat
                           Dm9
Or get lost like a ship at sea
                                Am
I want to remember, I can never forget

                        Am   G
Cause I was thinking of you
 C                      G
Can't stop thinking of you
               Am   F   C   G
Sto pensando a noi
Outros vídeos desta música
    42.741 exibições
      • ½ Tom
      • A
      • Bb
      • B
      • C
      • Db
      • D
      • Eb
      • E
      • F
      • F#
      • G
      • Ab
    • Adicionar à lista

    Afinação da cifra

    Afinador online

      0 comentários

      Ver todos os comentários

      Entre para o Cifra Club PRO

      Tenha acesso a benefícios exclusivos no App e no Site

      • Chega de anúncios

      • Badges exclusivas

      • Mais recursos no app do Afinador

      • Atendimento Prioritário

      • Aumente seu limite de lista

      • Ajude a produzir mais conteúdo

      Cifra Club Pro

      Aproveite o Cifra Club com benefícios exclusivos e sem anúncios
      Cifra Club Pro
      Aproveite o Cifra Club com benefícios exclusivos e sem anúncios
      Ops (: Contenido disponible sólo en portugués.
      OK