Cifra Club

One Nation Under A Groove

Funkadelic

Cifra: Principal (violão e guitarra)
Selo Cifra Club: esta cifra foi revisada para atender aos critérios oficiais da nossa Equipe de Qualidade.
tom: D
E|-------------------------7-7---5-|
B|-------------------------7-7---5-|
G|-------------------------7-7---5-|
D|------5b6------------------------|
A|--5-7------7-7--5h7--------------|
E|---------------------------------|


[Chorus] (One nation...)

E|--7--5--| ?-play around with notes-|
B|--7--5--| ?-in this box area:------|
G|--7--5--| ?------5--7--------------|
D|--------| ?------5--7--------------|
A|--------| ?------5--7--------------|
E|--------| ?------------------------|


[Solo] (on the long version)

E|--------|-----------------------------------------------|-15-15-14-12--------|
B|--17-15~|--15---------------15--------------------------|-------------15b17~-|
G|--------|--14b16~-----14b16-----14b16~16pb14--12-11-----|--------------------|
D|--------|------------------------------------------14~--|--------------------|
A|--------|-----------------------------------------------|--------------------|
E|--------|-----------------------------------------------|--------------------|

E|--15-------------------------------------------------------------------------|
B|-----12b14r12b14r----------12------------------------------------------------|
G|-------------------14-12h14--------------------------------------------------|
D|------------------------------14p12h14~---14p12------------------------------|
A|------------------------------------------------14-12-10-9~--9-10-12-12/14---|
E|-----------------------------------------------------------------------------|

E|-----------------------|-19-17----15-17-19-15~--19-19-17----22-19-15-17-15---|
B|-----------------------|-------17------------------------17------------------|
G|--------------12-11-14-|-----------------------------------------------------|
D|--------12-14----------|-----------------------------------------------------|
A|--14-12----------------|-----------------------------------------------------|
E|-----------------------|-----------------------------------------------------|

E|--19-17-------15-17-19-15~-----15-17-19-19b20----|
B|--------17-17---------------17-------------------|
G|-------------------------------------------------| etc.
D|-------------------------------------------------|
A|-------------------------------------------------|
E|-------------------------------------------------|
Outros vídeos desta música
    56 exibições
      • ½ Tom
      • A
      • Bb
      • B
      • C
      • Db
      • D
      • Eb
      • E
      • F
      • F#
      • G
      • Ab
    • Adicionar à lista

    Afinação da cifra

    Afinador online

      0 comentários

      Ver todos os comentários

      Entre para o Cifra Club PRO

      Tenha acesso a benefícios exclusivos no App e no Site

      • Chega de anúncios

      • Badges exclusivas

      • Mais recursos no app do Afinador

      • Atendimento Prioritário

      • Aumente seu limite de lista

      • Ajude a produzir mais conteúdo

      Cifra Club Pro

      Aproveite o Cifra Club com benefícios exclusivos e sem anúncios
      Cifra Club Pro
      Aproveite o Cifra Club com benefícios exclusivos e sem anúncios
      Ops (: Contenido disponible sólo en portugués.
      OK