Cifra Club

Refazenda

Gilberto Gil

Cifra: Versão 4 (violão e guitarra)
Selo Cifra Club: esta cifra foi revisada para atender aos critérios oficiais da nossa Equipe de Qualidade.
tom: C
Verso pt.1                      

E|-----------------------------------|
B|-----------------0---------0-------|
G|----------0----9----0----9---------|
D|--------6----0----8----0-----------|  Abacateiro acataremos teu ato....
A|------0----9----0----9-------------|
E|-----------------------------------|

Verso pt.2                      

E|-----------------------------------|
B|-----------------0---------0-------|
G|----------0----5----0----5---------|
D|--------3----0----2----0-----------|   Abacateiro sabes ao que estou me referindo...
A|------0----5----0----5-------------|
E|-----------------------------------|

Verso pt.3                      

E|-----------------------------------|
B|-----------------0---------0-------|
G|----------0----9----0----9---------|
D|--------6----0----8----0-----------|  Abacateiro serás meu parceiro solitário....
A|------0----9----0----9-------------|
E|-----------------------------------|

Refrão                      

E|-----------------------------------|   Refazenda toda
B|-----------------0---------0-------|   
G|----------0----5----0----5---------|   Refazenda        
D|--------3----0----2----0-----------|   
A|------0----5----0----5-------------|   Refazenda toda,guariroba
E|-----------------------------------|
Outros vídeos desta música
    1.402 exibições
      • ½ Tom
      • A
      • Bb
      • B
      • C
      • Db
      • D
      • Eb
      • E
      • F
      • F#
      • G
      • Ab
    • Adicionar à lista

    Afinação da cifra

    Afinador online

      0 comentários

      Ver todos os comentários

      Entre para o Cifra Club PRO

      Tenha acesso a benefícios exclusivos no App e no Site

      • Chega de anúncios

      • Badges exclusivas

      • Mais recursos no app do Afinador

      • Atendimento Prioritário

      • Aumente seu limite de lista

      • Ajude a produzir mais conteúdo

      Cifra Club Pro

      Aproveite o Cifra Club com benefícios exclusivos e sem anúncios
      Cifra Club Pro
      Aproveite o Cifra Club com benefícios exclusivos e sem anúncios
      OK