Cifra Club

The Weight Of Dreams

Greta Van Fleet

Cifra: Principal (violão e guitarra)
Selo Cifra Club: esta cifra foi revisada para atender aos critérios oficiais da nossa Equipe de Qualidade.
tom: Am
[Intro]
E|-------------------------|-------------------------|
B|---------13\12---------12|-------8\6-------6-------|
G|------14------------14---|-----9---------7---------|
D|---14------------14------|---9---------7-----------|
A|-0-------------0---------|-0---------0-------------|
E|-------------------------|-------------------------|
               
E|-------------------------|-------------------------|
B|-------5\1-------1-------|-------6-------5---------|
G|-----5---------2---------|-----7-------7-----------|
D|---7---------2-----------|---7-------7-------------|
A|-0---------0-------------|-0-------0---------------|
E|-------------------------|-------------------------|

E|-------------------------|-------------------------|
B|---------13\12---------12|-------8\6-------6-------|
G|------14------------14---|-----9---------7---------|
D|---14------------14------|---9---------7-----------|
A|-0-------------0---------|-0---------0-------------|
E|-------------------------|-------------------------|
                            
E|-------------------------|-3-----------------------|
B|-------5\1-------1p0-----|-3-----------------------|
G|-----5---------2-----2---|-0-----------------------|
D|---7---------2---------2-|-0-----------------------|
A|-0---------0------------0|-2-----------------------|
E|-------------------------|-3-----------------------|

E|-------------------------|-------------------------|
B|---------13\12---------12|-------8\6-------6-------|
G|------14------------14---|-----9---------7---------|
D|---14------------14------|---9---------7-----------|
A|-0-------------0---------|-0---------0-------------|
E|-------------------------|-------------------------|
               
E|-------------------------|-------------------------|
B|-------5/1-------1-------|-------6-------5---------|
G|-----5---------2---------|-----7-------7-----------|
D|---7---------2-----------|---7-------7-------------|
A|-0---------0-------------|-0-------0---------------|
E|-------------------------|-------------------------|

E|-------------------------|-------------------------|
B|---------13\12---------12|-------8\6-------6-------|
G|------14------------14---|-----9---------7---------|
D|---14------------14------|---9---------7-----------|
A|-0-------------0---------|-0---------0-------------|
E|-------------------------|-------------------------|
                            
E|-------------------------|-------------------------|
B|-------5\1-------1p0-----|-1-----------------------|
G|-----5---------2-----2---|-2-----------------------|
D|---7---------2---------2-|-3-----------------------|
A|-0---------0------------0|-3-----------------------|
E|-------------------------|-1-----------------------|

[Bridge]
E|-3p1p0-------------------|
B|-------3p1p0-----0-------|
G|-------------0h2---1-----|
D|-------------------------|
A|-------------------------|
E|-------------------------|

Main riff
E|-------------------------|-------------------------|
B|------0h1p0h1----------1-|-------0h1---1-----------|
G|-2------------2------2---|-----0-------2-----------|
D|-2-----------------0-----|---0---------3-----------|
A|-0---------------2-------|-3-----------3-----------|
E|-------------------------|-------------1-----------|

E|---0-----0---------------|
B|-----1-----1p0-----------|
G|-2-----2-------2---------|
D|-----------------3-------|
A|-------------------3-----|
E|-------------------------|

E|-------------------------|-------------------------|
B|------0h1p0h1----------1-|-------0h1---1-----------|
G|-2------------2------2---|-----0-------2-----------|
D|-2-----------------0-----|---0---------3-----------|
A|-0---------------2-------|-3-----------3-----------|
E|-------------------------|-------------1-----------|

E|-------------------------|
B|---0h1p0---------0-------|
G|-------------0h2---1-----|
D|-3-------3-2-------------|
A|-------------------------|
E|-------------------------|

E|-------------------------|-------------------------|
B|------0h1p0h1----------1-|-------0h1---1-----------|
G|-2------------2------2---|-----0-------2-----------|
D|-2-----------------0-----|---0---------3-----------|
A|-0---------------2-------|-3-----------3-----------|
E|-------------------------|-------------1-----------|

E|-------------------------|
B|---0h1p0---------0-------|
G|-------------0h2---1-----|
D|-3-------3-2-------------|
A|-------------------------|
E|-------------------------|

E|-------------------------|-------------------------|
B|------0h1p0h1----------1-|-------0h1---1-----------|
G|-2------------2------2---|-----0-------2-----------|
D|-2-----------------0-----|---0---------3-----------|
A|-0---------------2-------|-3-----------3-----------|
E|-------------------------|-------------1-----------|

E|---0-----0---------------|
B|-----1-----1p0-----------|
G|-2-----2-------2---------|
D|-----------------3-------|
A|-------------------3-----|
E|-------------------------|

[Verse 1]
E|-------------------------|-------------------------|
B|------0h1p0h1----------1-|-------0h1---1-----------|
G|-2------------2------2---|-----0-------2-----------|
D|-2-----------------0-----|---0---------3-----------|
A|-0---------------2-------|-3-----------3-----------|
E|-------------------------|-------------1-----------|

E|-3p1p0-------------------|
B|-------3p1p0-----0-------|
G|-------------0h2---1-----|
D|-------------------------|
A|-------------------------|
E|-------------------------|

E|-------------------------|-------------------------|
B|------0h1p0h1----------1-|-------0h1---1-----------|
G|-2------------2------2---|-----0-------2-----------|
D|-2-----------------0-----|---0---------3-----------|
A|-0---------------2-------|-3-----------3-----------|
E|-------------------------|-------------1-----------|

E|-------------------------|
B|---0h1p0---------0-------|
G|-------------0h2---1-----|
D|-3-------3-2-------------|
A|-------------------------|
E|-------------------------|

E|-------------------------|-------------------------|
B|------0h1p0h1----------1-|-------0h1---1-----------|
G|-2------------2------2---|-----0-------2-----------|
D|-2-----------------0-----|---0---------3-----------|
A|-0---------------2-------|-3-----------3-----------|
E|-------------------------|-------------1-----------|


E|---0-----0---------------|
B|-----1-----1p0-----------|
G|-2-----2-------2---------|
D|-----------------3-------|
A|-------------------3-----|
E|-------------------------|
                                   (strum the F-chord)
E|-------------------------|-------------------------|
B|------0h1p0h1----------1-|-------0h1---1-----------|
G|-2------------2------2---|-----0-------2-----------|
D|-2-----------------0-----|---0---------3-----------|
A|-0---------------2-------|-3-----------3-----------|
E|-------------------------|-------------1-----------|

[Pre-Chorus]
E|-------------------------|-------------------------|-------------------------|
B|-------1-------1-------1-|-----1---------1-------1-|-------1-------1---------|
G|-----2-------2-------0---|---2---2-----2-------2---|-----0-------0-----------|
D|---2-------0-------2-----|-0---------3-------2-----|---2-------0-------------| x2
A|-0-------2-------3-------|-----------------0-------|-3-------2---------------|
E|-------------------------|---------1---------------|-------------------------|

[Chorus riff]
E|-------------------------|
B|-------------------------|
G|-------------------------|
D|-------------------------|
A|-----3---0-3-0-----------|
E|-0-3---3-----------------|

[Chorus chords]
    Am           G              E7      F
E|--0---0-0---0--------------|----------1-----------------|
B|--1---1-1-3----0-0---------|--3---3---1-----------------|
G|--2---2-2------0-0---------|--1---1---2-----------------|
D|--2---2-2------0-0---------|--0---0---3-----------------|
A|--0---0-0------2-2---------|--2---2---3-----------------|
E|---------------3-3---------|----------1-----------------|

[Post-Chorus 1]
E|-------------------------|-------------------------|
B|------13-12-12h13p12/10--|-----8-7-7h8p7/5---------|
G|------14-14--------------|-----9-9-----------------|
D|---14--------------------|---9---------------------|
A|-0-----------------------|-0-----------------------|
E|-------------------------|-------------------------|

E|--------0h3p0------------|-------------------------|
B|----5-3-------0-1-1p0----|-1-----------------------|
G|----5-5---------------2--|-2-----------------------|
D|---5--------------------2|-3-----------------------|
A|-0------------0----------|-3-----------------------|
E|-------------------------|-1-----------------------|

E|----------3--------------|-------------------------|
B|-1p0------3--------------|-0h1p0--------0----------|
G|-----2----0--------------|----------0h2---1--------|
D|-------3--0--------------|------3-2----------------|
A|----------2--------------|-------------------------|
E|----------3--------------|-------------------------|

[Verse 2]
E|-------------------------|-------------------------|
B|------0h1p0h1----------1-|-------0h1---1-----------|
G|-2------------2------2---|-----0-------2-----------|
D|-2-----------------0-----|---0---------3-----------|
A|-0---------------2-------|-3-----------3-----------|
E|-------------------------|-------------1-----------|

E|-------------------------|
B|---0h1p0---------0-------|
G|-------------0h2---1-----|
D|-3-------3-2-------------|
A|-------------------------|
E|-------------------------|

E|-------------------------|-------------------------|
B|------0h1p0h1----------1-|-------0h1---1-----------|
G|-2------------2------2---|-----0-------2-----------|
D|-2-----------------0-----|---0---------3-----------|
A|-0---------------2-------|-3-----------3-----------|
E|-------------------------|-------------1-----------|

E|-3p1p0-------3p1p0-------|-3p1p0-------3p1p0-------|
B|-------3p1p0-------3p1p0-|-------3p1p0-------3p1p0-|
G|-------------------------|-------------------------|
D|-------------------------|-------------------------|
A|-------------------------|-------------------------|
E|-------------------------|-------------------------|

E|-------------------------|-------------------------|
B|------0h1p0h1----------1-|-------0h1---1-----------|
G|-2------------2------2---|-----0-------2-----------|
D|-2-----------------0-----|---0---------3-----------|
A|-0---------------2-------|-3-----------3-----------|
E|-------------------------|-------------1-----------|

E|---0-----0---------------|
B|-----1-----1p0-----------|
G|-2-----2-------2---------|
D|-----------------3-------|
A|-------------------3-----|
E|-------------------------|
                                   (strum the F-chord)
E|-------------------------|-------------------------|
B|------0h1p0h1----------1-|-------0h1---1-----------|
G|-2------------2------2---|-----0-------2-----------|
D|-2-----------------0-----|---0---------3-----------|
A|-0---------------2-------|-3-----------3-----------|
E|-------------------------|-------------1-----------|


[Bridge]
E|-------------------------|-------------------------|-------------------------|
B|-------1-------1-------1-|-----1---------1-------1-|-------1-------1---------|
G|-----2-------2-------0---|---2---2-----2-------2---|-----0-------0-----------|
D|---2-------0-------2-----|-0---------3-------2-----|---2-------0-------------| x4
A|-0-------2-------3-------|-----------------0-------|-3-------2---------------|
E|-------------------------|---------1---------------|-------------------------|

[Chorus riff]
E|-------------------------|
B|-------------------------|
G|-------------------------|
D|-------------------------|
A|-----3---0-3-0-----------|
E|-0-3---3-----------------|

[Chorus chords]
    Am           G              E7      F
E|--0---0-0---0--------------|----------1-----------------|
B|--1---1-1-3----0-0---------|--3---3---1-----------------|
G|--2---2-2------0-0---------|--1---1---2-----------------|
D|--2---2-2------0-0---------|--0---0---3-----------------|
A|--0---0-0------2-2---------|--2---2---3-----------------|
E|---------------3-3---------|----------1-----------------|

[Post-Chorus 2]
E|-------------------------|-------------------------|
B|-------------------------|-1-----------------------|
G|-------------------------|-2-----------------------|
D|-------------------------|-3-----------------------|
A|-----3---0-3-0-----------|-3-----------------------|
E|-0-3---3-----------------|-1-----------------------|

E|-------------------------|-------------------------|
B|-------------------------|-1-----------------------|
G|-------------------------|-2-----------------------|
D|-------------------------|-2-----------------------|
A|-----3---0-3-0-----------|-0-----------------------|
E|-0-3---3-----------------|-------------------------|

(repeat from here)
E|-------------------------|-3-----------------------|
B|-------------------------|-3-----------------------|
G|-------------------------|-0-----------------------|
D|-------------------------|-0-----------------------|
A|-----3---0-3-0-----------|-2-----------------------|
E|-0-3---3-----------------|-3-----------------------|

E|-------------------------|-------------------------|
B|-------------------------|-1-----------------------|
G|-------------------------|-2-----------------------|
D|-------------------------|-2-----------------------|
A|-----3---0-3-0-----------|-0-----------------------|
E|-0-3---3-----------------|-------------------------|

E|-----3-------------------|
B|-1---3--1----------------|
G|-0---0--2----------------|
D|-2---0--3----------------|
A|-3---2--3----------------|
E|-----3--1----------------|

E|-------------------------|-------------------------|
B|-------------------------|-1-----------------------|
G|-------------------------|-2-----------------------|
D|-------------------------|-2-----------------------| x2
A|-----3---0-3-0-----------|-0-----------------------|
E|-0-3---3-----------------|-------------------------|

************************************
 
| \  Slide down
| p  Pull off
| h  Hammer on
 
Outros vídeos desta música
    532 exibições
      • ½ Tom
      • Am
      • Bbm
      • Bm
      • Cm
      • C#m
      • Dm
      • Ebm
      • Em
      • Fm
      • F#m
      • Gm
      • G#m
    • Adicionar à lista

    Afinação da cifra

    Afinador online

      0 comentários

      Ver todos os comentários

      Conseguiu tocar?

      0Tocaram0Ainda não

      Grave um vídeo tocando The Weight Of Dreams e nos envie!

      Entre para o Cifra Club PRO

      Tenha acesso a benefícios exclusivos no App e no Site

      • Chega de anúncios

      • Badges exclusivas

      • Mais recursos no app do Afinador

      • Atendimento Prioritário

      • Aumente seu limite de lista

      • Ajude a produzir mais conteúdo

      Cifra Club Pro

      Aproveite o Cifra Club com benefícios exclusivos e sem anúncios
      Cifra Club Pro
      Aproveite o Cifra Club com benefícios exclusivos e sem anúncios
      Ops (: Contenido disponible sólo en portugués.
      OK