Cifra Club

A Alma Abatida

Harpa Cristã

Cifra: Principal (violão e guitarra)
Selo Cifra Club: esta cifra foi revisada para atender aos critérios oficiais da nossa Equipe de Qualidade.
tom: E
[Intro] A  B  E  C#m  
        F#m  B  E

[Tab - Intro]        

Parte 1 de 4
    A              B 
E|--------------------------------------|
B|-/2--------2----/4--2----/4--2--------|
G|-----4--2--------------4--------4-----|
D|--------------------------------------|
A|--------------------------------------|
E|--------------------------------------|

Parte 2 de 4
    E                C#m
E|--2-----0--2--2/4--2--0--0------------|
B|--------------------------------------|
G|--------------------------------------|
D|--------------------------------------|
A|--------------------------------------|
E|--------------------------------------|

Parte 3 de 4
   F#m            B            E        
E|--------/2---0----------2/4--2--0--0--|
B|-/2-------------4--2------------------|
G|----4--2--------------4---------------|
D|--------------------------------------|
A|--------------------------------------|
E|--------------------------------------|

Parte 4 de 4
E|--------------------------------------|
B|--2-----------------------------------|
G|-----4--2h4--1-----0--0h1-------------|
D|---------------------------2----------|
A|--------------------------------------|
E|--------------------------------------|

[Primeira Parte]

            E                     C#m
Se tu, minh'alma, a Deus suplicas
         F#m   B7            E   B               
E não recebes,    confiando fica
       B/D#   E                       C#m
E em suas promessas que são mui ricas
       F#m   B7           E  D  E7
E infalíveis    pra te valer

[Refrão]

            A     B         G#m
Porque te abates,   ó minha alma
C#m         F#m   
    E te comoves
B7             E    D  E7             
   Perdendo a calma        
            A    B7/A            G#m         
Não tenhas medo,      em Deus espera
C#m             F#m  B7          E  B         
    Porque bem cedo,    Jesus virá

[Segunda Parte]

          E                     C#m
Ele intercede por ti, minh'alma
         F#m  B7           E    B
Espera n'Ele,    com fé e calma
   B/D#   E                     C#m   
Jesus de todos teus males salva
          F#m  B7            E   D  E7
E te abençoa      dos altos céus

[Refrão]

            A     B         G#m
Porque te abates,   ó minha alma
C#m         F#m    
    E te comoves
B7             E    D  E7             
   Perdendo a calma        
            A    B            G#m         
Não tenhas medo,   em Deus espera
C#m             F#m  B7          E  D  E7         
    Porque bem cedo,    Jesus virá

[Solo] A  B  G#m  C#m
       F#m  B7  E  B7

[Tab - Solo]        

E|--0---/2--0-----0--2------------------|
B|-------------3--------3---------------|
G|--------------------------------------|
D|--------------------------------------|
A|--------------------------------------|
E|--------------------------------------|
 
    A              B
E|-/5--4--5-------/7--5--5--------------|
B|-----------5--------------7-----------|
G|--------------------------------------|
D|--------------------------------------|
A|--------------------------------------|
E|--------------------------------------|

      G#m               C#m
E|--7-----------------------------------|
B|-----9--7--9--9b11r9--7---------------|
G|-------------------------9--9---------|
D|--------------------------------------|
A|--------------------------------------|
E|--------------------------------------|

    F#m               B7       E      B7
E|--------------------------------------|
B|-----------7--9--7--------------------|
G|--6--8--9-----------9--9--8--9--4b6-4-|
D|--------------------------------------|
A|--------------------------------------|
E|--------------------------------------|

[Terceira Parte]

           E                    C#m
Terás em breve, as dores findas
         F#m  B7         E    B
No dia alegre    da Sua vinda 
     B/D#  E                  C#m
Se Cristo tarda, espera ainda
             F#m  B7        E  D  E7 
Mais um pouquinho    e O verás

[Refrão]

            A     B         G#m
Porque te abates,   ó minha alma
C#m         F#m    
    E te comoves
B7             E    D  E7             
   Perdendo a calma        
            A    B            G#m         
Não tenhas medo,   em Deus espera
C#m             F#m  B7          A         
    Porque bem cedo,    Jesus virá

[Final] Am  E

[Tab - Final]
                     Am               E 
E|---------------------------------/5-4-|
B|-/2p0---/2p0---/7--5-----5/7--5-------|
G|------2------2-------2----------------|
D|--------------------------------------|
A|--------------------------------------|
E|--------------------------------------|
Outros vídeos desta música
    507.960 exibições
    • Simplificar cifra
      • ½ Tom
      • A
      • Bb
      • B
      • C
      • Db
      • D
      • Eb
      • E
      • F
      • F#
      • G
      • Ab
    • Adicionar à lista

    Afinação da cifra

    Afinador online

      0 comentários

      Ver todos os comentários

      Entre para o Cifra Club PRO

      Tenha acesso a benefícios exclusivos no App e no Site

      • Chega de anúncios

      • Badges exclusivas

      • Mais recursos no app do Afinador

      • Atendimento Prioritário

      • Aumente seu limite de lista

      • Ajude a produzir mais conteúdo

      Cifra Club Pro

      Aproveite o Cifra Club com benefícios exclusivos e sem anúncios
      Cifra Club Pro
      Aproveite o Cifra Club com benefícios exclusivos e sem anúncios
      Ops (: Contenido disponible sólo en portugués.
      OK