Notificações Amigos pendentes

      Harpa Cristã

      Campeões da Luz

      21.195 exibições
      Tom: A (com acordes na forma de )
      
      E|----------10-9-10-|-12--10--7---10-|----------10-9-10-|-12--10--7---10-|
      B|----------8--8-8--|-8---8---8---8--|-0--------8--8-8--|-8---8-------0--|
      G|----------0--0-0--|-0---0---0---0--|-0--------0--0-0--|-0---0---0---0--|
      D|----------9--8-9--|-9---9---12--9--|-12-------9--8-9--|-9---9---12--12-|
      A|------------------|----------------|------------------|----------------|
      E|------------------|----------------|------------------|----------------|
      
      
      E|----------------7--|-8-----------0--|----------------0--|-------------8-|
      B|-7-----------10----|-----10--7------|-------------7-----|-----7---10----|
      G|-7-----------7--7--|-----7-------0--|-7--------------0--|-7-------7---7-|
      D|-10----------10-10-|-12--0---10--10-|-10----------10-10-|-10--10--7---7-|
      A|-12----------9--9--|-9---9---12-----|-9-----------12----|-9---12--9---9-|
      E|-------------------|-10------10--10-|-10----------10-10-|-10--10--------|
      
      
      E|-7--------10-9-10-|-12--10--7---10-|----------------3-|-5---3---2---1-|
      B|----------8--8-8--|-8---8---8---8--|----------8--7--3-|-0---0---1---3-|
      G|-7--------0--0-0--|-0---0---7---0--|-7--------7--0--4-|-0---0---0---0-|
      D|----------9--8-9--|-9---9-------9--|-9--------9--10-5-|---------------|
      A|-10---------------|---------10-----|-10-------10-12---|---------0---2-|
      E|------------------|----------------|------------------|-----3---------|
      
      
      E|-0-----------0-0-|-3---3----------|-7-------10--10-12-|-10--8---7---5-|
      B|-1-----------1-1-|-1---1---10--8--|-------------------|---------------|
      G|-0-----------0-0-|-0---0---0---0--|-7-------7---7--9--|-9---9---7---5-|
      D|-----------------|-2---2---10--10-|-------------------|---------0---0-|
      A|-3-----------3-3-|----------------|-10----------11-11-|-12--12--9---9-|
      E|-----------------|---------11--11-|-10--8---7---7--7--|-8---8---------|
      
      
      E|-3------------|----------------|------5-------|-7-----------0-|--------------|
      B|-0------------|-12--12--12--12-|-12------0----|-8---10--8---0-|-7------------|
      G|-0------------|-0---0---0---0--|-0----5--12---|-7---7---7---0-|-5------------|
      D|--------------|-12--12--12--12-|-12---0-------|-----10--9-----|-7------------|
      A|--------------|-----9----------|------9--10---|-10--10--10----|-5------------|
      E|-3------------|---------12--10-|--------------|---------------|--------------|
      
      
      E|-8---8---8---8-|-8----5-------|---------5---6-|-7------------|----------------|
      B|-----7---5-----|---------7----|-5---3-------3-|-3------------|-12--12--12--12-|
      G|-7-------0---7-|-7----7--5----|-5---5---5-----|--------------|-0---0---0---0--|
      D|-0---7---0---0-|-7----7--7----|-5---4---4---4-|-5------------|-12--12--12--12-|
      A|-9-----------9-|-9----9--5----|-5---5---5---5-|--------------|---------9------|
      E|-----10--------|--------------|---------------|--------------|-------------12-|
      
      
      E|-------------0-|---------8---10-|-12-----------|-12--12--10--9--|-10-----------|
      B|-12---10-8-----|-12--12---------|---------8----|-----8---0---8--|-0----12-0----|
      G|-0-------0-----|-10--10--10--10-|-9------------|-12------12-----|-12---7--7----|
      D|-12---10-9-----|-0---0----------|---------10---|-9---8---0---8--|-0----0--0----|
      A|------9--------|-10--10--10--10-|-10-----------|----------------|------10-10---|
      E|-10---11-12----|---------8---7--|-8------------|-9---9-------12-|--------------|
      
      
      E|-----8---7----5-|-3------------|
      B|----------------|-0------------|
      G|-7---7---7----5-|-0------------|
      D|-10--0---0----0-|--------------|
      A|-9---9---10-7-9-|--------------|
      E|-10-------------|-3------------|
      

      Comentários 0

      140 .
      140 cancelar

      conseguiu tocar?

      covers

      Grave um vídeo tocando Campeões da Luz e mande pra gente!

      Ex.: http://www.youtube.com/watch?v=0IvSvIwGdwk
      ver covers de outras músicas »
      0:00 / 0:00

      Capítulos

        1 versão de violão dificuldade exibições contribuição e correção
        1 versão de guitarra dificuldade exibições contribuição e correção
        1 versão de cavaco dificuldade exibições contribuição e correção
        1 versão de teclado dificuldade exibições contribuição e correção
        2 versões de partiturasformatodownloadscontribuição
        play/pausefechar subir/descer velocidade
        6ª corda E5ª corda A4ª corda D3ª corda G2ª corda B1ª corda E
          acordes
          publicidade
          fechar
          ok